999
DXF created by Inkscape
  0
SECTION
  2
HEADER
  9
$ACADVER
  1
AC1014
  9
$HANDSEED
  5
FFFF
  9
$MEASUREMENT
 70
     1
  0
ENDSEC
  0
SECTION
  2
TABLES
  0
TABLE
  2
VPORT
  5
8
330
0
100
AcDbSymbolTable
 70
     4
  0
VPORT
  5
2E
330
8
100
AcDbSymbolTableRecord
100
AcDbViewportTableRecord
  2
*ACTIVE
 70
     0
 10
0.0
 20
0.0
 11
1.0
 21
1.0
 12
210.0
 22
148.5
 13
0.0
 23
0.0
 14
10.0
 24
10.0
 15
10.0
 25
10.0
 16
0.0
 26
0.0
 36
1.0
 17
0.0
 27
0.0
 37
0.0
 40
341.0
 41
1.24
 42
50.0
 43
0.0
 44
0.0
 50
0.0
 51
0.0
 71
     0
 72
   100
 73
     1
 74
     3
 75
     0
 76
     0
 77
     0
 78
     0
  0
ENDTAB
  0
TABLE
  2
LTYPE
  5
5
330
0
100
AcDbSymbolTable
 70
     1
  0
LTYPE
  5
14
330
5
100
AcDbSymbolTableRecord
100
AcDbLinetypeTableRecord
  2
BYBLOCK
 70
     0
  3

 72
    65
 73
     0
 40
0.0
  0
LTYPE
  5
15
330
5
100
AcDbSymbolTableRecord
100
AcDbLinetypeTableRecord
  2
BYLAYER
 70
     0
  3

 72
    65
 73
     0
 40
0.0
  0
LTYPE
  5
16
330
5
100
AcDbSymbolTableRecord
100
AcDbLinetypeTableRecord
  2
CONTINUOUS
 70
     0
  3
Solid line
 72
    65
 73
     0
 40
0.0
  0
ENDTAB
  0
TABLE
  2
LAYER
  5
2
100
AcDbSymbolTable
 70
2
  0
LAYER
  5
50
100
AcDbSymbolTableRecord
100
AcDbLayerTableRecord
  2
0
 70
0
  6
CONTINUOUS
  0
LAYER
  5
51
100
AcDbSymbolTableRecord
100
AcDbLayerTableRecord
  2
Layer_1
 70
0
  6
CONTINUOUS
  0
ENDTAB
  0
TABLE
  2
STYLE
  5
3
330
0
100
AcDbSymbolTable
 70
     1
  0
STYLE
  5
11
330
3
100
AcDbSymbolTableRecord
100
AcDbTextStyleTableRecord
  2
STANDARD
 70
     0
 40
0.0
 41
1.0
 50
0.0
 71
     0
 42
2.5
  3
txt
  4

  0
ENDTAB
  0
TABLE
  2
VIEW
  5
6
330
0
100
AcDbSymbolTable
 70
     0
  0
ENDTAB
  0
TABLE
  2
UCS
  5
7
330
0
100
AcDbSymbolTable
 70
     0
  0
ENDTAB
  0
TABLE
  2
APPID
  5
9
330
0
100
AcDbSymbolTable
 70
     2
  0
APPID
  5
12
330
9
100
AcDbSymbolTableRecord
100
AcDbRegAppTableRecord
  2
ACAD
 70
     0
  0
ENDTAB
  0
TABLE
  2
DIMSTYLE
  5
A
330
0
100
AcDbSymbolTable
 70
     1
  0
DIMSTYLE
105
27
330
A
100
AcDbSymbolTableRecord
100
AcDbDimStyleTableRecord
  2
ISO-25
 70
     0
  3

  4

  5

  6

  7

 40
1.0
 41
2.5
 42
0.625
 43
3.75
 44
1.25
 45
0.0
 46
0.0
 47
0.0
 48
0.0
140
2.5
141
2.5
142
0.0
143
0.03937007874016
144
1.0
145
0.0
146
1.0
147
0.625
 71
     0
 72
     0
 73
     0
 74
     0
 75
     0
 76
     0
 77
     1
 78
     8
170
     0
171
     3
172
     1
173
     0
174
     0
175
     0
176
     0
177
     0
178
     0
270
     2
271
     2
272
     2
273
     2
274
     3
340
11
275
     0
280
     0
281
     0
282
     0
283
     0
284
     8
285
     0
286
     0
287
     3
288
     0
  0
ENDTAB
  0
TABLE
  2
BLOCK_RECORD
  5
1
330
0
100
AcDbSymbolTable
 70
     1
  0
BLOCK_RECORD
  5
1F
330
1
100
AcDbSymbolTableRecord
100
AcDbBlockTableRecord
  2
*MODEL_SPACE
  0
BLOCK_RECORD
  5
1B
330
1
100
AcDbSymbolTableRecord
100
AcDbBlockTableRecord
  2
*PAPER_SPACE
  0
ENDTAB
  0
ENDSEC
  0
SECTION
  2
BLOCKS
  0
BLOCK
  5
20
330
1F
100
AcDbEntity
  8
0
100
AcDbBlockBegin
  2
*MODEL_SPACE
 70
     0
 10
0.0
 20
0.0
 30
0.0
  3
*MODEL_SPACE
  1

  0
ENDBLK
  5
21
330
1F
100
AcDbEntity
  8
0
100
AcDbBlockEnd
  0
BLOCK
  5
1C
330
1B
100
AcDbEntity
 67
     1
  8
0
100
AcDbBlockBegin
  2
*PAPER_SPACE
  1

  0
ENDBLK
  5
1D
330
1B
100
AcDbEntity
 67
     1
  8
0
100
AcDbBlockEnd
  0
ENDSEC
  0
SECTION
  2
ENTITIES
  0
LINE
  5
100
100
AcDbEntity
  8
Layer_1
 62
7
100
AcDbLine
 10
55.000000
 20
132.999999
 30
0.0
 11
82.000000
 21
132.999999
 31
0.0
  0
LINE
  5
101
100
AcDbEntity
  8
Layer_1
 62
7
100
AcDbLine
 10
82.000000
 20
132.999999
 30
0.0
 11
82.000000
 21
60.000001
 31
0.0
  0
LINE
  5
102
100
AcDbEntity
  8
Layer_1
 62
7
100
AcDbLine
 10
82.000000
 20
60.000001
 30
0.0
 11
60.000001
 21
60.000001
 31
0.0
  0
LINE
  5
103
100
AcDbEntity
  8
Layer_1
 62
7
100
AcDbLine
 10
60.000001
 20
60.000001
 30
0.0
 11
60.000001
 21
128.999999
 31
0.0
  0
LINE
  5
104
100
AcDbEntity
  8
Layer_1
 62
7
100
AcDbLine
 10
60.000001
 20
128.999999
 30
0.0
 11
55.000000
 21
128.999999
 31
0.0
  0
LINE
  5
105
100
AcDbEntity
  8
Layer_1
 62
7
100
AcDbLine
 10
55.000000
 20
128.999999
 30
0.0
 11
55.000000
 21
132.999999
 31
0.0
  0
LINE
  5
106
100
AcDbEntity
  8
Layer_1
 62
7
100
AcDbLine
 10
65.121533
 20
85.769803
 30
0.0
 11
66.259242
 21
85.769803
 31
0.0
  0
LINE
  5
107
100
AcDbEntity
  8
Layer_1
 62
7
100
AcDbLine
 10
66.259242
 20
85.769803
 30
0.0
 11
66.259242
 21
85.525062
 31
0.0
  0
SPLINE
  5
108
100
AcDbEntity
  8
Layer_1
 62
7
100
AcDbSpline
 70
0
 71
3
 72
28
 73
24
 74
22
 40
0.000000
 40
0.000000
 40
0.000000
 40
0.000000
 40
0.371535
 40
0.740810
 40
1.142524
 40
1.530533
 40
1.905116
 40
2.287875
 40
2.744014
 40
3.172541
 40
3.625286
 40
4.047567
 40
4.492340
 40
4.977904
 40
5.589001
 40
6.177794
 40
6.768355
 40
7.395147
 40
7.960565
 40
8.533098
 40
8.786195
 40
9.050838
 40
9.331365
 40
9.331365
 40
9.331365
 40
9.331365
 10
68.002184
 20
86.057537
 30
0.0
 10
68.126689
 20
86.047425
 30
0.0
 10
68.374944
 20
86.027262
 30
0.0
 10
68.720787
 20
85.846434
 30
0.0
 10
69.002312
 20
85.577492
 30
0.0
 10
69.220923
 20
85.252843
 30
0.0
 10
69.354185
 20
84.890771
 30
0.0
 10
69.397759
 20
84.485593
 30
0.0
 10
69.343123
 20
84.059728
 30
0.0
 10
69.131244
 20
83.655908
 30
0.0
 10
68.800810
 20
83.362443
 30
0.0
 10
68.407765
 20
83.157901
 30
0.0
 10
67.968900
 20
83.040543
 30
0.0
 10
67.454288
 20
83.003752
 30
0.0
 10
66.891358
 20
83.052801
 30
0.0
 10
66.314761
 20
83.223086
 30
0.0
 10
65.781368
 20
83.509422
 30
0.0
 10
65.321879
 20
83.898874
 30
0.0
 10
65.018295
 20
84.417809
 30
0.0
 10
64.945694
 20
84.886564
 30
0.0
 10
64.972420
 20
85.249517
 30
0.0
 10
65.026497
 20
85.511200
 30
0.0
 10
65.089245
 20
85.681944
 30
0.0
 10
65.121533
 20
85.769803
 30
0.0
 11
68.002184
 21
86.057537
 31
0.0
 11
68.369662
 21
86.002781
 31
0.0
 11
68.700391
 21
85.838519
 31
0.0
 11
68.994373
 21
85.564751
 31
0.0
 11
69.209346
 21
85.241738
 31
0.0
 11
69.338330
 21
84.890063
 31
0.0
 11
69.381325
 21
84.509726
 31
0.0
 11
69.314812
 21
84.058463
 31
0.0
 11
69.115272
 21
83.679227
 31
0.0
 11
68.782706
 21
83.372017
 31
0.0
 11
68.408983
 21
83.175417
 31
0.0
 11
67.980137
 21
83.057456
 31
0.0
 11
67.496168
 21
83.018136
 31
0.0
 11
66.887629
 21
83.073993
 31
0.0
 11
66.323185
 21
83.241562
 31
0.0
 11
65.802835
 21
83.520844
 31
0.0
 11
65.334305
 21
83.937195
 31
0.0
 11
65.053186
 21
84.427776
 31
0.0
 11
64.959476
 21
84.992588
 31
0.0
 11
64.977485
 21
85.245044
 31
0.0
 11
65.031504
 21
85.504115
 31
0.0
 11
65.121533
 21
85.769803
 31
0.0
  0
SPLINE
  5
109
100
AcDbEntity
  8
Layer_1
 62
7
100
AcDbSpline
 70
0
 71
3
 72
25
 73
21
 74
19
 40
0.000000
 40
0.000000
 40
0.000000
 40
0.000000
 40
0.271637
 40
0.521191
 40
0.754501
 40
1.020848
 40
1.255366
 40
1.494877
 40
1.743003
 40
2.003219
 40
2.302084
 40
2.560657
 40
2.831347
 40
3.118843
 40
3.459595
 40
3.774074
 40
4.064809
 40
4.174736
 40
4.315095
 40
4.486037
 40
4.486037
 40
4.486037
 40
4.486037
 10
66.259242
 20
85.525062
 30
0.0
 10
66.168669
 20
85.520770
 30
0.0
 10
65.994888
 20
85.512534
 30
0.0
 10
65.748048
 20
85.457621
 30
0.0
 10
65.514804
 20
85.366255
 30
0.0
 10
65.308089
 20
85.227670
 30
0.0
 10
65.164422
 20
85.018049
 30
0.0
 10
65.124153
 20
84.774396
 30
0.0
 10
65.167862
 20
84.524052
 30
0.0
 10
65.307760
 20
84.288115
 30
0.0
 10
65.510164
 20
84.101996
 30
0.0
 10
65.740411
 20
83.948614
 30
0.0
 10
65.986622
 20
83.830166
 30
0.0
 10
66.271851
 20
83.736591
 30
0.0
 10
66.578003
 20
83.664285
 30
0.0
 10
66.889823
 20
83.615549
 30
0.0
 10
67.128339
 20
83.600598
 30
0.0
 10
67.308649
 20
83.606492
 30
0.0
 10
67.448701
 20
83.616927
 30
0.0
 10
67.551931
 20
83.627492
 30
0.0
 10
67.608617
 20
83.633293
 30
0.0
 11
66.259242
 21
85.525062
 31
0.0
 11
65.988414
 21
85.504119
 31
0.0
 11
65.744777
 21
85.450098
 31
0.0
 11
65.528331
 21
85.363005
 31
0.0
 11
65.311522
 21
85.208296
 31
0.0
 11
65.181435
 21
85.013166
 31
0.0
 11
65.138069
 21
84.777614
 31
0.0
 11
65.181067
 21
84.533241
 31
0.0
 11
65.310052
 21
84.307243
 31
0.0
 11
65.525023
 21
84.099620
 31
0.0
 11
65.740000
 21
83.955936
 31
0.0
 11
65.983636
 21
83.837976
 31
0.0
 11
66.255934
 21
83.745739
 31
0.0
 11
66.587400
 21
83.666731
 31
0.0
 11
66.898286
 21
83.619328
 31
0.0
 11
67.188591
 21
83.603527
 31
0.0
 11
67.298469
 21
83.606831
 31
0.0
 11
67.438477
 21
83.616749
 31
0.0
 11
67.608617
 21
83.633293
 31
0.0
  0
LINE
  5
10a
100
AcDbEntity
  8
Layer_1
 62
7
100
AcDbLine
 10
68.002184
 20
86.057537
 30
0.0
 11
68.002184
 21
86.057537
 31
0.0
  0
SPLINE
  5
10b
100
AcDbEntity
  8
Layer_1
 62
7
100
AcDbSpline
 70
0
 71
3
 72
16
 73
12
 74
10
 40
0.000000
 40
0.000000
 40
0.000000
 40
0.000000
 40
0.524932
 40
0.991875
 40
1.442987
 40
1.766168
 40
2.056983
 40
2.331142
 40
2.616452
 40
2.901215
 40
3.213755
 40
3.213755
 40
3.213755
 40
3.213755
 10
67.608617
 20
83.633293
 30
0.0
 10
67.481440
 20
83.754703
 30
0.0
 10
67.241135
 20
83.984110
 30
0.0
 10
67.012262
 20
84.418701
 30
0.0
 10
66.949198
 20
84.834249
 30
0.0
 10
66.980169
 20
85.189845
 30
0.0
 10
67.064727
 20
85.476399
 30
0.0
 10
67.214047
 20
85.721088
 30
0.0
 10
67.422479
 20
85.916227
 30
0.0
 10
67.697546
 20
86.038898
 30
0.0
 10
67.897538
 20
86.051134
 30
0.0
 10
68.002184
 20
86.057537
 30
0.0
 11
67.608617
 21
83.633293
 31
0.0
 11
67.250328
 21
84.016937
 31
0.0
 11
67.035354
 21
84.431451
 31
0.0
 11
66.963694
 21
84.876835
 31
0.0
 11
66.992359
 21
85.198742
 31
0.0
 11
67.078349
 21
85.476554
 31
0.0
 11
67.221664
 21
85.710271
 31
0.0
 11
67.431861
 21
85.903194
 31
0.0
 11
67.692035
 21
86.018950
 31
0.0
 11
68.002184
 21
86.057537
 31
0.0
  0
LINE
  5
10c
100
AcDbEntity
  8
Layer_1
 62
7
100
AcDbLine
 10
68.197315
 20
85.425844
 30
0.0
 11
68.197315
 21
85.425844
 31
0.0
  0
SPLINE
  5
10d
100
AcDbEntity
  8
Layer_1
 62
7
100
AcDbSpline
 70
0
 71
3
 72
31
 73
27
 74
25
 40
0.000000
 40
0.000000
 40
0.000000
 40
0.000000
 40
0.248197
 40
0.478523
 40
0.700631
 40
0.937973
 40
1.160863
 40
1.395299
 40
1.641585
 40
1.871844
 40
2.110652
 40
2.338828
 40
2.575992
 40
2.833501
 40
3.086186
 40
3.321665
 40
3.550277
 40
3.793401
 40
4.020761
 40
4.259360
 40
4.500138
 40
4.729446
 40
4.974077
 40
5.204622
 40
5.442219
 40
5.697101
 40
5.697101
 40
5.697101
 40
5.697101
 10
68.197315
 20
85.425844
 30
0.0
 10
68.114426
 20
85.422218
 30
0.0
 10
67.954617
 20
85.415225
 30
0.0
 10
67.728006
 20
85.350191
 30
0.0
 10
67.522949
 20
85.242803
 30
0.0
 10
67.352327
 20
85.086709
 30
0.0
 10
67.241752
 20
84.877467
 30
0.0
 10
67.211486
 20
84.641273
 30
0.0
 10
67.241032
 20
84.403050
 30
0.0
 10
67.346115
 20
84.183804
 30
0.0
 10
67.513722
 20
84.017219
 30
0.0
 10
67.719594
 20
83.900151
 30
0.0
 10
67.952667
 20
83.831588
 30
0.0
 10
68.202347
 20
83.811741
 30
0.0
 10
68.451305
 20
83.831460
 30
0.0
 10
68.682957
 20
83.897728
 30
0.0
 10
68.890646
 20
84.012427
 30
0.0
 10
69.067809
 20
84.169124
 30
0.0
 10
69.181729
 20
84.382488
 30
0.0
 10
69.213494
 20
84.619590
 30
0.0
 10
69.181708
 20
84.857377
 30
0.0
 10
69.067894
 20
85.072635
 30
0.0
 10
68.891044
 20
85.232842
 30
0.0
 10
68.680511
 20
85.346038
 30
0.0
 10
68.446901
 20
85.414568
 30
0.0
 10
68.282435
 20
85.421999
 30
0.0
 10
68.197315
 20
85.425844
 30
0.0
 11
68.197315
 21
85.425844
 31
0.0
 11
67.950004
 21
85.404896
 31
0.0
 11
67.728415
 21
85.342057
 31
0.0
 11
67.532549
 21
85.237328
 31
0.0
 11
67.359836
 21
85.074535
 31
0.0
 11
67.256209
 21
84.877200
 31
0.0
 11
67.221664
 21
84.645322
 31
0.0
 11
67.255106
 21
84.401317
 31
0.0
 11
67.355426
 21
84.194061
 31
0.0
 11
67.522626
 21
84.023553
 31
0.0
 11
67.720331
 21
83.909634
 31
0.0
 11
67.947432
 21
83.841283
 31
0.0
 11
68.203930
 21
83.818501
 31
0.0
 11
68.455652
 21
83.840548
 31
0.0
 11
68.681650
 21
83.906694
 31
0.0
 11
68.881924
 21
84.016937
 31
0.0
 11
69.060150
 21
84.182301
 31
0.0
 11
69.167086
 21
84.382943
 31
0.0
 11
69.202732
 21
84.618864
 31
0.0
 11
69.167086
 21
84.856989
 31
0.0
 11
69.060150
 21
85.059836
 31
0.0
 11
68.881924
 21
85.227406
 31
0.0
 11
68.679445
 21
85.337648
 31
0.0
 11
68.451242
 21
85.403794
 31
0.0
 11
68.197315
 21
85.425844
 31
0.0
  0
LINE
  5
10e
100
AcDbEntity
  8
Layer_1
 62
7
100
AcDbLine
 10
69.212652
 20
87.016652
 30
0.0
 11
68.084867
 21
87.016652
 31
0.0
  0
LINE
  5
10f
100
AcDbEntity
  8
Layer_1
 62
7
100
AcDbLine
 10
68.084867
 20
87.016652
 30
0.0
 11
68.084867
 21
87.254777
 31
0.0
  0
SPLINE
  5
110
100
AcDbEntity
  8
Layer_1
 62
7
100
AcDbSpline
 70
0
 71
3
 72
19
 73
15
 74
13
 40
0.000000
 40
0.000000
 40
0.000000
 40
0.000000
 40
0.420126
 40
0.830267
 40
1.237817
 40
1.663647
 40
2.070003
 40
2.469408
 40
2.830265
 40
3.177180
 40
3.528003
 40
3.798014
 40
4.065271
 40
4.335246
 40
4.335246
 40
4.335246
 40
4.335246
 10
66.854555
 20
89.751781
 30
0.0
 10
66.994705
 20
89.746849
 30
0.0
 10
67.271674
 20
89.737104
 30
0.0
 10
67.677858
 20
89.654646
 30
0.0
 10
68.070957
 20
89.520258
 30
0.0
 10
68.441321
 20
89.332919
 30
0.0
 10
68.772205
 20
89.086236
 30
0.0
 10
69.038552
 20
88.800073
 30
0.0
 10
69.238635
 20
88.486951
 30
0.0
 10
69.356864
 20
88.150902
 30
0.0
 10
69.390209
 20
87.827262
 30
0.0
 10
69.368535
 20
87.531347
 30
0.0
 10
69.313830
 20
87.266474
 30
0.0
 10
69.246491
 20
87.100207
 30
0.0
 10
69.212652
 20
87.016652
 30
0.0
 11
66.854555
 21
89.751781
 31
0.0
 11
67.273847
 21
89.725320
 31
0.0
 11
67.676234
 21
89.645945
 31
0.0
 11
68.061716
 21
89.513656
 31
0.0
 11
68.440585
 21
89.319259
 31
0.0
 11
68.765802
 21
89.075622
 31
0.0
 11
69.037367
 21
88.782745
 31
0.0
 11
69.228454
 21
88.476636
 31
0.0
 11
69.343107
 21
88.149214
 31
0.0
 11
69.381325
 21
87.800479
 31
0.0
 11
69.362583
 21
87.531119
 31
0.0
 11
69.306359
 21
87.269843
 31
0.0
 11
69.212652
 21
87.016652
 31
0.0
  0
SPLINE
  5
111
100
AcDbEntity
  8
Layer_1
 62
7
100
AcDbSpline
 70
0
 71
3
 72
22
 73
18
 74
16
 40
0.000000
 40
0.000000
 40
0.000000
 40
0.000000
 40
0.266144
 40
0.512471
 40
0.744758
 40
1.009665
 40
1.239336
 40
1.470969
 40
1.858452
 40
2.266813
 40
2.770440
 40
3.200523
 40
3.644442
 40
4.109708
 40
4.199389
 40
4.318579
 40
4.467325
 40
4.467325
 40
4.467325
 40
4.467325
 10
68.084867
 20
87.254777
 30
0.0
 10
68.173592
 20
87.259124
 30
0.0
 10
68.344436
 20
87.267493
 30
0.0
 10
68.588100
 20
87.322242
 30
0.0
 10
68.818587
 20
87.414825
 30
0.0
 10
69.026375
 20
87.545999
 30
0.0
 10
69.172854
 20
87.748906
 30
0.0
 10
69.219623
 20
88.034712
 30
0.0
 10
69.138571
 20
88.382414
 30
0.0
 10
68.838926
 20
88.714909
 30
0.0
 10
68.435682
 20
88.920559
 30
0.0
 10
67.998414
 20
89.063274
 30
0.0
 10
67.557774
 20
89.142726
 30
0.0
 10
67.224466
 20
89.162763
 30
0.0
 10
66.999784
 20
89.158105
 30
0.0
 10
66.880710
 20
89.152211
 30
0.0
 10
66.791585
 20
89.146442
 30
0.0
 10
66.742107
 20
89.143239
 30
0.0
 11
68.084867
 21
87.254777
 31
0.0
 11
68.350186
 21
87.275720
 31
0.0
 11
68.590515
 21
87.329741
 31
0.0
 11
68.805857
 21
87.416835
 31
0.0
 11
69.024506
 21
87.566396
 31
0.0
 11
69.155695
 21
87.754912
 31
0.0
 11
69.199424
 21
87.982380
 31
0.0
 11
69.111597
 21
88.359778
 31
0.0
 11
68.848117
 21
88.671766
 31
0.0
 11
68.408982
 21
88.918344
 31
0.0
 11
68.000349
 21
89.052471
 31
0.0
 11
67.563785
 21
89.132949
 31
0.0
 11
67.099293
 21
89.159777
 31
0.0
 11
67.009631
 21
89.157940
 31
0.0
 11
66.890569
 21
89.152430
 31
0.0
 11
66.742107
 21
89.143239
 31
0.0
  0
LINE
  5
112
100
AcDbEntity
  8
Layer_1
 62
7
100
AcDbLine
 10
66.854555
 20
89.751781
 30
0.0
 11
66.854555
 21
89.751781
 31
0.0
  0
SPLINE
  5
113
100
AcDbEntity
  8
Layer_1
 62
7
100
AcDbSpline
 70
0
 71
3
 72
28
 73
24
 74
22
 40
0.000000
 40
0.000000
 40
0.000000
 40
0.000000
 40
0.540252
 40
1.014548
 40
1.458834
 40
1.769421
 40
2.054951
 40
2.332886
 40
2.617435
 40
2.899420
 40
3.204125
 40
3.564393
 40
3.926772
 40
4.325539
 40
4.714464
 40
5.083878
 40
5.454592
 40
5.916182
 40
6.347640
 40
6.801135
 40
7.223541
 40
7.671215
 40
8.162240
 40
8.162240
 40
8.162240
 40
8.162240
 10
66.742107
 20
89.143239
 30
0.0
 10
66.865823
 20
89.011450
 30
0.0
 10
67.098152
 20
88.763962
 30
0.0
 10
67.320433
 20
88.322182
 30
0.0
 10
67.385589
 20
87.911295
 30
0.0
 10
67.352471
 20
87.563605
 30
0.0
 10
67.259572
 20
87.284178
 30
0.0
 10
67.100611
 20
87.046664
 30
0.0
 10
66.885927
 20
86.858241
 30
0.0
 10
66.613826
 20
86.743665
 30
0.0
 10
66.296975
 20
86.708321
 30
0.0
 10
65.952484
 20
86.757596
 30
0.0
 10
65.615107
 20
86.933520
 30
0.0
 10
65.337882
 20
87.203979
 30
0.0
 10
65.121560
 20
87.526500
 30
0.0
 10
64.987162
 20
87.882319
 30
0.0
 10
64.942900
 20
88.283571
 30
0.0
 10
64.997595
 20
88.708221
 30
0.0
 10
65.208786
 20
89.115560
 30
0.0
 10
65.539394
 20
89.411610
 30
0.0
 10
65.935218
 20
89.613020
 30
0.0
 10
66.377200
 20
89.732491
 30
0.0
 10
66.690612
 20
89.745156
 30
0.0
 10
66.854555
 20
89.751781
 30
0.0
 11
66.742107
 21
89.143239
 31
0.0
 11
67.091211
 21
88.730930
 31
0.0
 11
67.300673
 21
88.305393
 31
0.0
 11
67.370492
 21
87.866626
 31
0.0
 11
67.339625
 21
87.557577
 31
0.0
 11
67.247021
 21
87.287481
 31
0.0
 11
67.092680
 21
87.056338
 31
0.0
 11
66.876973
 21
86.870763
 31
0.0
 11
66.617902
 21
86.759418
 31
0.0
 11
66.315466
 21
86.722303
 31
0.0
 11
65.959383
 21
86.777057
 31
0.0
 11
65.636371
 21
86.941319
 31
0.0
 11
65.346430
 21
87.215088
 31
0.0
 11
65.131459
 21
87.539202
 31
0.0
 11
65.002474
 21
87.885366
 31
0.0
 11
64.959476
 21
88.253578
 31
0.0
 11
65.025993
 21
88.710350
 31
0.0
 11
65.225533
 21
89.092894
 31
0.0
 11
65.558097
 21
89.401210
 31
0.0
 11
65.932925
 21
89.595969
 31
0.0
 11
66.365078
 21
89.712826
 31
0.0
 11
66.854555
 21
89.751781
 31
0.0
  0
LINE
  5
114
100
AcDbEntity
  8
Layer_1
 62
7
100
AcDbLine
 10
66.126950
 20
88.951418
 30
0.0
 11
66.126950
 21
88.951418
 31
0.0
  0
LINE
  5
115
100
AcDbEntity
  8
Layer_1
 62
7
100
AcDbLine
 10
69.285414
 20
97.060896
 30
0.0
 11
69.285414
 21
95.909960
 31
0.0
  0
LINE
  5
116
100
AcDbEntity
  8
Layer_1
 62
7
100
AcDbLine
 10
69.285414
 20
95.909960
 30
0.0
 11
69.126664
 21
95.909960
 31
0.0
  0
SPLINE
  5
117
100
AcDbEntity
  8
Layer_1
 62
7
100
AcDbSpline
 70
0
 71
3
 72
31
 73
27
 74
25
 40
0.000000
 40
0.000000
 40
0.000000
 40
0.000000
 40
0.244597
 40
0.477651
 40
0.708624
 40
0.955967
 40
1.180630
 40
1.410381
 40
1.662432
 40
1.898594
 40
2.146008
 40
2.378496
 40
2.622452
 40
2.888315
 40
3.142166
 40
3.377219
 40
3.604756
 40
3.843041
 40
4.071319
 40
4.313965
 40
4.550380
 40
4.775796
 40
5.017429
 40
5.244837
 40
5.478950
 40
5.729775
 40
5.729775
 40
5.729775
 40
5.729775
 10
66.126950
 20
88.951418
 30
0.0
 10
66.045274
 20
88.947526
 30
0.0
 10
65.885778
 20
88.939924
 30
0.0
 10
65.657032
 20
88.872041
 30
0.0
 10
65.446617
 20
88.760438
 30
0.0
 10
65.264585
 20
88.607800
 30
0.0
 10
65.143965
 20
88.400652
 30
0.0
 10
65.110386
 20
88.163332
 30
0.0
 10
65.142362
 20
87.922623
 30
0.0
 10
65.254900
 20
87.699070
 30
0.0
 10
65.432358
 20
87.533148
 30
0.0
 10
65.647406
 20
87.419411
 30
0.0
 10
65.887756
 20
87.353465
 30
0.0
 10
66.142760
 20
87.334049
 30
0.0
 10
66.394914
 20
87.353837
 30
0.0
 10
66.625708
 20
87.422731
 30
0.0
 10
66.830283
 20
87.539690
 30
0.0
 10
66.997508
 20
87.704992
 30
0.0
 10
67.102903
 20
87.921779
 30
0.0
 10
67.132832
 20
88.158818
 30
0.0
 10
67.101580
 20
88.395298
 30
0.0
 10
66.987300
 20
88.606434
 30
0.0
 10
66.810215
 20
88.760987
 30
0.0
 10
66.602960
 20
88.873043
 30
0.0
 10
66.372626
 20
88.940264
 30
0.0
 10
66.210702
 20
88.947616
 30
0.0
 10
66.126950
 20
88.951418
 30
0.0
 11
66.126950
 21
88.951418
 31
0.0
 11
65.883316
 21
88.929735
 31
0.0
 11
65.659522
 21
88.864691
 31
0.0
 11
65.455569
 21
88.756287
 31
0.0
 11
65.269997
 21
88.592759
 31
0.0
 11
65.158652
 21
88.397628
 31
0.0
 11
65.121533
 21
88.170896
 31
0.0
 11
65.157182
 21
87.921378
 31
0.0
 11
65.264117
 21
87.710814
 31
0.0
 11
65.442341
 21
87.539203
 31
0.0
 11
65.647028
 21
87.428960
 31
0.0
 11
65.881845
 21
87.362814
 31
0.0
 11
66.146793
 21
87.340767
 31
0.0
 11
66.399620
 21
87.363549
 31
0.0
 11
66.624516
 21
87.431900
 31
0.0
 11
66.821482
 21
87.545819
 31
0.0
 11
66.988684
 21
87.715592
 31
0.0
 11
67.089005
 21
87.920645
 31
0.0
 11
67.122444
 21
88.160976
 31
0.0
 11
67.086801
 21
88.394688
 31
0.0
 11
66.979866
 21
88.593126
 31
0.0
 11
66.801639
 21
88.756287
 31
0.0
 11
66.601732
 21
88.864691
 31
0.0
 11
66.376836
 21
88.929735
 31
0.0
 11
66.126950
 21
88.951418
 31
0.0
  0
LINE
  5
118
100
AcDbEntity
  8
Layer_1
 62
7
100
AcDbLine
 10
68.971222
 20
96.052172
 30
0.0
 11
67.076142
 21
96.052172
 31
0.0
  0
SPLINE
  5
119
100
AcDbEntity
  8
Layer_1
 62
7
100
AcDbSpline
 70
0
 71
3
 72
10
 73
6
 74
4
 40
0.000000
 40
0.000000
 40
0.000000
 40
0.000000
 40
0.081202
 40
0.151421
 40
0.237754
 40
0.237754
 40
0.237754
 40
0.237754
 10
69.126664
 20
95.909960
 30
0.0
 10
69.123867
 20
95.937730
 30
0.0
 10
69.118650
 20
95.989514
 30
0.0
 10
69.053828
 20
96.047312
 30
0.0
 10
69.000584
 20
96.050444
 30
0.0
 10
68.971222
 20
96.052172
 30
0.0
 11
69.126664
 21
95.909960
 31
0.0
 11
69.107899
 21
95.988964
 31
0.0
 11
69.056097
 21
96.036368
 31
0.0
 11
68.971222
 21
96.052172
 31
0.0
  0
LINE
  5
11a
100
AcDbEntity
  8
Layer_1
 62
7
100
AcDbLine
 10
69.126664
 20
95.231963
 30
0.0
 11
69.285414
 21
95.231963
 31
0.0
  0
LINE
  5
11b
100
AcDbEntity
  8
Layer_1
 62
7
100
AcDbLine
 10
69.285414
 20
95.231963
 30
0.0
 11
69.285414
 21
94.090947
 31
0.0
  0
LINE
  5
11c
100
AcDbEntity
  8
Layer_1
 62
7
100
AcDbLine
 10
69.285414
 20
94.090947
 30
0.0
 11
69.126664
 21
94.090947
 31
0.0
  0
SPLINE
  5
11d
100
AcDbEntity
  8
Layer_1
 62
7
100
AcDbSpline
 70
0
 71
3
 72
22
 73
18
 74
16
 40
0.000000
 40
0.000000
 40
0.000000
 40
0.000000
 40
0.298371
 40
0.510877
 40
0.714425
 40
1.023127
 40
1.377256
 40
1.835913
 40
2.237309
 40
2.621299
 40
2.994464
 40
3.212622
 40
3.388435
 40
3.526619
 40
3.681656
 40
3.847358
 40
4.044640
 40
4.044640
 40
4.044640
 40
4.044640
 10
67.076142
 20
96.052172
 30
0.0
 10
66.976432
 20
96.048811
 30
0.0
 10
66.805707
 20
96.043056
 30
0.0
 10
66.580542
 20
95.916641
 30
0.0
 10
66.519820
 20
95.663562
 30
0.0
 10
66.608314
 20
95.375165
 30
0.0
 10
66.882567
 20
95.105495
 30
0.0
 10
67.246962
 20
94.922709
 30
0.0
 10
67.639744
 20
94.787799
 30
0.0
 10
68.018702
 20
94.707443
 30
0.0
 10
68.344017
 20
94.684698
 30
0.0
 10
68.599998
 20
94.694450
 30
0.0
 10
68.775536
 20
94.722658
 30
0.0
 10
68.924535
 20
94.776446
 30
0.0
 10
69.040840
 20
94.883045
 30
0.0
 10
69.113450
 20
95.044611
 30
0.0
 10
69.122011
 20
95.165992
 30
0.0
 10
69.126664
 20
95.231963
 30
0.0
 11
67.076142
 21
96.052172
 31
0.0
 11
66.780325
 21
96.013217
 31
0.0
 11
66.602834
 21
95.896360
 31
0.0
 11
66.543668
 21
95.701601
 31
0.0
 11
66.624147
 21
95.403574
 31
0.0
 11
66.865580
 21
95.144503
 31
0.0
 11
67.267966
 21
94.924386
 31
0.0
 11
67.647571
 21
94.793930
 31
0.0
 11
68.023499
 21
94.715657
 31
0.0
 11
68.395751
 21
94.689569
 31
0.0
 11
68.613666
 21
94.699856
 31
0.0
 11
68.786748
 21
94.730723
 31
0.0
 11
68.914998
 21
94.782172
 31
0.0
 11
69.029650
 21
94.886534
 31
0.0
 11
69.100205
 21
95.036464
 31
0.0
 11
69.126664
 21
95.231963
 31
0.0
  0
LINE
  5
11e
100
AcDbEntity
  8
Layer_1
 62
7
100
AcDbLine
 10
69.004293
 20
94.229854
 30
0.0
 11
66.970309
 21
94.229854
 31
0.0
  0
SPLINE
  5
11f
100
AcDbEntity
  8
Layer_1
 62
7
100
AcDbSpline
 70
0
 71
3
 72
10
 73
6
 74
4
 40
0.000000
 40
0.000000
 40
0.000000
 40
0.000000
 40
0.078920
 40
0.140628
 40
0.207481
 40
0.207481
 40
0.207481
 40
0.207481
 10
69.126664
 20
94.090947
 30
0.0
 10
69.124088
 20
94.117471
 30
0.0
 10
69.119498
 20
94.164735
 30
0.0
 10
69.071476
 20
94.223208
 30
0.0
 10
69.027277
 20
94.227581
 30
0.0
 10
69.004293
 20
94.229854
 30
0.0
 11
69.126664
 21
94.090947
 31
0.0
 11
69.110131
 21
94.168116
 31
0.0
 11
69.069339
 21
94.214418
 31
0.0
 11
69.004293
 21
94.229854
 31
0.0
  0
LINE
  5
120
100
AcDbEntity
  8
Layer_1
 62
7
100
AcDbLine
 10
69.126664
 20
93.416261
 30
0.0
 11
69.285414
 21
93.416261
 31
0.0
  0
LINE
  5
121
100
AcDbEntity
  8
Layer_1
 62
7
100
AcDbLine
 10
69.285414
 20
93.416261
 30
0.0
 11
69.285414
 21
91.918059
 31
0.0
  0
LINE
  5
122
100
AcDbEntity
  8
Layer_1
 62
7
100
AcDbLine
 10
69.285414
 20
91.918059
 30
0.0
 11
69.126664
 21
91.918059
 31
0.0
  0
SPLINE
  5
123
100
AcDbEntity
  8
Layer_1
 62
7
100
AcDbSpline
 70
0
 71
3
 72
25
 73
21
 74
19
 40
0.000000
 40
0.000000
 40
0.000000
 40
0.000000
 40
0.106931
 40
0.205363
 40
0.299392
 40
0.401606
 40
0.496805
 40
0.596433
 40
0.911880
 40
1.268436
 40
1.726917
 40
2.125630
 40
2.511558
 40
2.891298
 40
3.107235
 40
3.280685
 40
3.416140
 40
3.570388
 40
3.734161
 40
3.929158
 40
3.929158
 40
3.929158
 40
3.929158
 10
66.970309
 20
94.229854
 30
0.0
 10
66.934606
 20
94.228331
 30
0.0
 10
66.866039
 20
94.225406
 30
0.0
 10
66.768988
 20
94.198264
 30
0.0
 10
66.681503
 20
94.152261
 30
0.0
 10
66.607589
 20
94.086970
 30
0.0
 10
66.558871
 20
93.997937
 30
0.0
 10
66.538302
 20
93.826818
 30
0.0
 10
66.613081
 20
93.565914
 30
0.0
 10
66.888043
 20
93.292884
 30
0.0
 10
67.252843
 20
93.110541
 30
0.0
 10
67.645606
 20
92.976641
 30
0.0
 10
68.026908
 20
92.897823
 30
0.0
 10
68.354307
 20
92.875776
 30
0.0
 10
68.610966
 20
92.885132
 30
0.0
 10
68.784120
 20
92.912344
 30
0.0
 10
68.931748
 20
92.964192
 30
0.0
 10
69.046595
 20
93.070008
 30
0.0
 10
69.117184
 20
93.230770
 30
0.0
 10
69.123326
 20
93.350944
 30
0.0
 10
69.126664
 20
93.416261
 30
0.0
 11
66.970309
 21
94.229854
 31
0.0
 11
66.863742
 21
94.221030
 31
0.0
 11
66.768934
 21
94.194569
 31
0.0
 11
66.685882
 21
94.150479
 31
0.0
 11
66.610552
 21
94.081392
 31
0.0
 11
66.565352
 21
93.997608
 31
0.0
 11
66.550283
 21
93.899126
 31
0.0
 11
66.630763
 21
93.594118
 31
0.0
 11
66.872195
 21
93.331739
 31
0.0
 11
67.274581
 21
93.111989
 31
0.0
 11
67.651980
 21
92.983373
 31
0.0
 11
68.030113
 21
92.906203
 31
0.0
 11
68.408982
 21
92.880479
 31
0.0
 11
68.624691
 21
92.890401
 31
0.0
 11
68.795567
 21
92.920167
 31
0.0
 11
68.921610
 21
92.969777
 31
0.0
 11
69.035529
 21
93.073772
 31
0.0
 11
69.103881
 21
93.222600
 31
0.0
 11
69.126664
 21
93.416261
 31
0.0
  0
LINE
  5
124
100
AcDbEntity
  8
Layer_1
 62
7
100
AcDbLine
 10
68.610726
 20
92.414152
 30
0.0
 11
66.877706
 21
92.414152
 31
0.0
  0
SPLINE
  5
125
100
AcDbEntity
  8
Layer_1
 62
7
100
AcDbSpline
 70
0
 71
3
 72
13
 73
9
 74
7
 40
0.000000
 40
0.000000
 40
0.000000
 40
0.000000
 40
0.165658
 40
0.300581
 40
0.413829
 40
0.527638
 40
0.663396
 40
0.829401
 40
0.829401
 40
0.829401
 40
0.829401
 10
69.126664
 20
91.918059
 30
0.0
 10
69.123425
 20
91.973313
 30
0.0
 10
69.117548
 20
92.073571
 30
0.0
 10
69.077728
 20
92.207291
 30
0.0
 10
69.008165
 20
92.309497
 30
0.0
 10
68.902255
 20
92.373515
 30
0.0
 10
68.766932
 20
92.408949
 30
0.0
 10
68.666161
 20
92.412305
 30
0.0
 10
68.610726
 20
92.414152
 30
0.0
 11
69.126664
 21
91.918059
 31
0.0
 11
69.109947
 21
92.082871
 31
0.0
 11
69.068604
 21
92.211304
 31
0.0
 11
69.002639
 21
92.303357
 31
0.0
 11
68.906912
 21
92.364910
 31
0.0
 11
68.776274
 21
92.401842
 31
0.0
 11
68.610726
 21
92.414152
 31
0.0
  0
LINE
  5
126
100
AcDbEntity
  8
Layer_1
 62
7
100
AcDbLine
 10
66.675960
 20
91.918059
 30
0.0
 11
66.510597
 21
91.918059
 31
0.0
  0
LINE
  5
127
100
AcDbEntity
  8
Layer_1
 62
7
100
AcDbLine
 10
66.510597
 20
91.918059
 30
0.0
 11
66.173251
 21
92.761418
 31
0.0
  0
LINE
  5
128
100
AcDbEntity
  8
Layer_1
 62
7
100
AcDbLine
 10
66.173251
 20
92.761418
 30
0.0
 11
66.173251
 21
92.916860
 31
0.0
  0
LINE
  5
129
100
AcDbEntity
  8
Layer_1
 62
7
100
AcDbLine
 10
66.173251
 20
92.916860
 30
0.0
 11
67.178668
 21
92.916860
 31
0.0
  0
SPLINE
  5
12a
100
AcDbEntity
  8
Layer_1
 62
7
100
AcDbSpline
 70
0
 71
3
 72
13
 73
9
 74
7
 40
0.000000
 40
0.000000
 40
0.000000
 40
0.000000
 40
0.154361
 40
0.270583
 40
0.393846
 40
0.472535
 40
0.569328
 40
0.685715
 40
0.685715
 40
0.685715
 40
0.685715
 10
66.877706
 20
92.414152
 30
0.0
 10
66.825550
 20
92.411967
 30
0.0
 10
66.734124
 20
92.408135
 30
0.0
 10
66.618793
 20
92.325052
 30
0.0
 10
66.598096
 20
92.213197
 30
0.0
 10
66.610443
 20
92.114728
 30
0.0
 10
66.635644
 20
92.020262
 30
0.0
 10
66.661722
 20
91.954152
 30
0.0
 10
66.675960
 20
91.918059
 30
0.0
 11
66.877706
 21
92.414152
 31
0.0
 11
66.725205
 21
92.390266
 31
0.0
 11
66.633702
 21
92.318608
 31
0.0
 11
66.603200
 21
92.199178
 31
0.0
 11
66.611283
 21
92.120905
 31
0.0
 11
66.635534
 21
92.027199
 31
0.0
 11
66.675960
 21
91.918059
 31
0.0
  0
SPLINE
  5
12b
100
AcDbEntity
  8
Layer_1
 62
7
100
AcDbSpline
 70
0
 71
3
 72
19
 73
15
 74
13
 40
0.000000
 40
0.000000
 40
0.000000
 40
0.000000
 40
0.358462
 40
0.640344
 40
0.846253
 40
1.166202
 40
1.439841
 40
1.685301
 40
1.996791
 40
2.310272
 40
2.742550
 40
2.803922
 40
2.873385
 40
2.950943
 40
2.950943
 40
2.950943
 40
2.950943
 10
67.178668
 20
92.916860
 30
0.0
 10
67.083479
 20
92.989097
 30
0.0
 10
66.913438
 20
93.118137
 30
0.0
 10
66.695077
 20
93.296844
 30
0.0
 10
66.496361
 20
93.478900
 30
0.0
 10
66.326603
 20
93.686370
 30
0.0
 10
66.197538
 20
93.938529
 30
0.0
 10
66.147463
 20
94.212956
 30
0.0
 10
66.217245
 20
94.519344
 30
0.0
 10
66.541559
 20
94.716632
 30
0.0
 10
66.813709
 20
94.733705
 30
0.0
 10
67.001295
 20
94.732245
 30
0.0
 10
67.070763
 20
94.731139
 30
0.0
 10
67.119753
 20
94.729909
 30
0.0
 10
67.145597
 20
94.729260
 30
0.0
 11
67.178668
 21
92.916860
 31
0.0
 11
66.894610
 21
93.135507
 31
0.0
 11
66.677432
 21
93.315203
 31
0.0
 11
66.527132
 21
93.455947
 31
0.0
 11
66.326860
 21
93.705464
 31
0.0
 11
66.206695
 21
93.951307
 31
0.0
 11
66.166639
 21
94.193476
 31
0.0
 11
66.252262
 21
94.492966
 31
0.0
 11
66.509128
 21
94.672662
 31
0.0
 11
66.937235
 21
94.732562
 31
0.0
 11
66.998607
 21
94.732188
 31
0.0
 11
67.068060
 21
94.731082
 31
0.0
 11
67.145597
 21
94.729260
 31
0.0
  0
LINE
  5
12c
100
AcDbEntity
  8
Layer_1
 62
7
100
AcDbLine
 10
66.758642
 20
96.554885
 30
0.0
 11
68.610726
 21
96.554885
 31
0.0
  0
SPLINE
  5
12d
100
AcDbEntity
  8
Layer_1
 62
7
100
AcDbSpline
 70
0
 71
3
 72
19
 73
15
 74
13
 40
0.000000
 40
0.000000
 40
0.000000
 40
0.000000
 40
0.359676
 40
0.638653
 40
0.837453
 40
1.154848
 40
1.426054
 40
1.668072
 40
1.825457
 40
1.971086
 40
2.118457
 40
2.261042
 40
2.408859
 40
2.570951
 40
2.570951
 40
2.570951
 40
2.570951
 10
67.145597
 20
94.729260
 30
0.0
 10
67.052160
 20
94.804392
 30
0.0
 10
66.886251
 20
94.937797
 30
0.0
 10
66.674471
 20
95.119778
 30
0.0
 10
66.482772
 20
95.303127
 30
0.0
 10
66.319061
 20
95.510303
 30
0.0
 10
66.193366
 20
95.760070
 30
0.0
 10
66.154289
 20
95.984097
 30
0.0
 10
66.174463
 20
96.166622
 30
0.0
 10
66.234721
 20
96.307019
 30
0.0
 10
66.333616
 20
96.416226
 30
0.0
 10
66.455884
 20
96.498209
 30
0.0
 10
66.600946
 20
96.547069
 30
0.0
 10
66.704487
 20
96.552201
 30
0.0
 10
66.758642
 20
96.554885
 30
0.0
 11
67.145597
 21
94.729260
 31
0.0
 11
66.866683
 21
94.956359
 31
0.0
 11
66.656119
 21
95.139363
 31
0.0
 11
66.513902
 21
95.278273
 31
0.0
 11
66.319142
 21
95.528889
 31
0.0
 11
66.202285
 21
95.773629
 31
0.0
 11
66.163331
 21
96.012491
 31
0.0
 11
66.182809
 21
96.168665
 31
0.0
 11
66.241238
 21
96.302060
 31
0.0
 11
66.338617
 21
96.412674
 31
0.0
 11
66.457313
 21
96.491678
 31
0.0
 11
66.597322
 21
96.539082
 31
0.0
 11
66.758642
 21
96.554885
 31
0.0
  0
LINE
  5
12e
100
AcDbEntity
  8
Layer_1
 62
7
100
AcDbLine
 10
69.126664
 20
97.060901
 30
0.0
 11
69.285414
 21
97.060896
 31
0.0
  0
LINE
  5
12f
100
AcDbEntity
  8
Layer_1
 62
7
100
AcDbLine
 10
69.285414
 20
102.498085
 30
0.0
 11
69.285414
 21
101.347146
 31
0.0
  0
LINE
  5
130
100
AcDbEntity
  8
Layer_1
 62
7
100
AcDbLine
 10
69.285414
 20
101.347146
 30
0.0
 11
69.126664
 21
101.347146
 31
0.0
  0
SPLINE
  5
131
100
AcDbEntity
  8
Layer_1
 62
7
100
AcDbSpline
 70
0
 71
3
 72
13
 73
9
 74
7
 40
0.000000
 40
0.000000
 40
0.000000
 40
0.000000
 40
0.167682
 40
0.304274
 40
0.418629
 40
0.533147
 40
0.670005
 40
0.837844
 40
0.837844
 40
0.837844
 40
0.837844
 10
68.610726
 20
96.554885
 30
0.0
 10
68.666718
 20
96.556783
 30
0.0
 10
68.768322
 20
96.560225
 30
0.0
 10
68.904595
 20
96.596603
 30
0.0
 10
69.010211
 20
96.663065
 30
0.0
 10
69.078323
 20
96.767680
 30
0.0
 10
69.117615
 20
96.903279
 30
0.0
 10
69.123450
 20
97.004916
 30
0.0
 10
69.126664
 20
97.060901
 30
0.0
 11
68.610726
 21
96.554885
 31
0.0
 11
68.777928
 21
96.567561
 31
0.0
 11
68.909117
 21
96.605595
 31
0.0
 11
69.004293
 21
96.668988
 31
0.0
 11
69.069337
 21
96.763242
 31
0.0
 11
69.110127
 21
96.893880
 31
0.0
 11
69.126664
 21
97.060901
 31
0.0
  0
LINE
  5
132
100
AcDbEntity
  8
Layer_1
 62
7
100
AcDbLine
 10
68.971222
 20
101.489360
 30
0.0
 11
67.076142
 21
101.489360
 31
0.0
  0
SPLINE
  5
133
100
AcDbEntity
  8
Layer_1
 62
7
100
AcDbSpline
 70
0
 71
3
 72
10
 73
6
 74
4
 40
0.000000
 40
0.000000
 40
0.000000
 40
0.000000
 40
0.081202
 40
0.151421
 40
0.237755
 40
0.237755
 40
0.237755
 40
0.237755
 10
69.126664
 20
101.347146
 30
0.0
 10
69.123867
 20
101.374916
 30
0.0
 10
69.118650
 20
101.426700
 30
0.0
 10
69.053828
 20
101.484499
 30
0.0
 10
69.000584
 20
101.487632
 30
0.0
 10
68.971222
 20
101.489360
 30
0.0
 11
69.126664
 21
101.347146
 31
0.0
 11
69.107899
 21
101.426150
 31
0.0
 11
69.056097
 21
101.473555
 31
0.0
 11
68.971222
 21
101.489360
 31
0.0
  0
LINE
  5
134
100
AcDbEntity
  8
Layer_1
 62
7
100
AcDbLine
 10
69.126664
 20
100.669152
 30
0.0
 11
69.285414
 21
100.669152
 31
0.0
  0
LINE
  5
135
100
AcDbEntity
  8
Layer_1
 62
7
100
AcDbLine
 10
69.285414
 20
100.669152
 30
0.0
 11
69.285414
 21
99.528136
 31
0.0
  0
LINE
  5
136
100
AcDbEntity
  8
Layer_1
 62
7
100
AcDbLine
 10
69.285414
 20
99.528136
 30
0.0
 11
69.126664
 21
99.528136
 31
0.0
  0
SPLINE
  5
137
100
AcDbEntity
  8
Layer_1
 62
7
100
AcDbSpline
 70
0
 71
3
 72
22
 73
18
 74
16
 40
0.000000
 40
0.000000
 40
0.000000
 40
0.000000
 40
0.298371
 40
0.510877
 40
0.714426
 40
1.023127
 40
1.377256
 40
1.835913
 40
2.237309
 40
2.621299
 40
2.994464
 40
3.212622
 40
3.388435
 40
3.526620
 40
3.681656
 40
3.847359
 40
4.044641
 40
4.044641
 40
4.044641
 40
4.044641
 10
67.076142
 20
101.489360
 30
0.0
 10
66.976432
 20
101.485999
 30
0.0
 10
66.805706
 20
101.480243
 30
0.0
 10
66.580542
 20
101.353827
 30
0.0
 10
66.519820
 20
101.100749
 30
0.0
 10
66.608314
 20
100.812352
 30
0.0
 10
66.882567
 20
100.542682
 30
0.0
 10
67.246961
 20
100.359895
 30
0.0
 10
67.639744
 20
100.224987
 30
0.0
 10
68.018701
 20
100.144629
 30
0.0
 10
68.344017
 20
100.121884
 30
0.0
 10
68.599998
 20
100.131636
 30
0.0
 10
68.775536
 20
100.159846
 30
0.0
 10
68.924534
 20
100.213635
 30
0.0
 10
69.040841
 20
100.320233
 30
0.0
 10
69.113450
 20
100.481799
 30
0.0
 10
69.122011
 20
100.603181
 30
0.0
 10
69.126664
 20
100.669152
 30
0.0
 11
67.076142
 21
101.489360
 31
0.0
 11
66.780325
 21
101.450404
 31
0.0
 11
66.602834
 21
101.333547
 31
0.0
 11
66.543668
 21
101.138787
 31
0.0
 11
66.624147
 21
100.840761
 31
0.0
 11
66.865580
 21
100.581690
 31
0.0
 11
67.267966
 21
100.361572
 31
0.0
 11
67.647571
 21
100.231117
 31
0.0
 11
68.023499
 21
100.152844
 31
0.0
 11
68.395751
 21
100.126755
 31
0.0
 11
68.613666
 21
100.137043
 31
0.0
 11
68.786748
 21
100.167911
 31
0.0
 11
68.914998
 21
100.219360
 31
0.0
 11
69.029650
 21
100.323721
 31
0.0
 11
69.100205
 21
100.473652
 31
0.0
 11
69.126664
 21
100.669152
 31
0.0
  0
LINE
  5
138
100
AcDbEntity
  8
Layer_1
 62
7
100
AcDbLine
 10
69.004293
 20
99.667043
 30
0.0
 11
66.970309
 21
99.667043
 31
0.0
  0
SPLINE
  5
139
100
AcDbEntity
  8
Layer_1
 62
7
100
AcDbSpline
 70
0
 71
3
 72
10
 73
6
 74
4
 40
0.000000
 40
0.000000
 40
0.000000
 40
0.000000
 40
0.078920
 40
0.140628
 40
0.207481
 40
0.207481
 40
0.207481
 40
0.207481
 10
69.126664
 20
99.528136
 30
0.0
 10
69.124088
 20
99.554660
 30
0.0
 10
69.119498
 20
99.601923
 30
0.0
 10
69.071476
 20
99.660397
 30
0.0
 10
69.027277
 20
99.664769
 30
0.0
 10
69.004293
 20
99.667043
 30
0.0
 11
69.126664
 21
99.528136
 31
0.0
 11
69.110131
 21
99.605305
 31
0.0
 11
69.069339
 21
99.651607
 31
0.0
 11
69.004293
 21
99.667043
 31
0.0
  0
LINE
  5
13a
100
AcDbEntity
  8
Layer_1
 62
7
100
AcDbLine
 10
69.126664
 20
98.853447
 30
0.0
 11
69.285414
 21
98.853447
 31
0.0
  0
LINE
  5
13b
100
AcDbEntity
  8
Layer_1
 62
7
100
AcDbLine
 10
69.285414
 20
98.853447
 30
0.0
 11
69.285414
 21
97.355245
 31
0.0
  0
LINE
  5
13c
100
AcDbEntity
  8
Layer_1
 62
7
100
AcDbLine
 10
69.285414
 20
97.355245
 30
0.0
 11
69.126664
 21
97.355245
 31
0.0
  0
SPLINE
  5
13d
100
AcDbEntity
  8
Layer_1
 62
7
100
AcDbSpline
 70
0
 71
3
 72
25
 73
21
 74
19
 40
0.000000
 40
0.000000
 40
0.000000
 40
0.000000
 40
0.106931
 40
0.205363
 40
0.299392
 40
0.401607
 40
0.496807
 40
0.596435
 40
0.911880
 40
1.268436
 40
1.726917
 40
2.125631
 40
2.511558
 40
2.891299
 40
3.107236
 40
3.280685
 40
3.416140
 40
3.570388
 40
3.734161
 40
3.929158
 40
3.929158
 40
3.929158
 40
3.929158
 10
66.970309
 20
99.667043
 30
0.0
 10
66.934606
 20
99.665520
 30
0.0
 10
66.866039
 20
99.662595
 30
0.0
 10
66.768988
 20
99.635453
 30
0.0
 10
66.681503
 20
99.589450
 30
0.0
 10
66.607589
 20
99.524158
 30
0.0
 10
66.558871
 20
99.435124
 30
0.0
 10
66.538302
 20
99.264005
 30
0.0
 10
66.613081
 20
99.003101
 30
0.0
 10
66.888043
 20
98.730073
 30
0.0
 10
67.252843
 20
98.547731
 30
0.0
 10
67.645606
 20
98.413828
 30
0.0
 10
68.026908
 20
98.335009
 30
0.0
 10
68.354307
 20
98.312967
 30
0.0
 10
68.610966
 20
98.322319
 30
0.0
 10
68.784120
 20
98.349530
 30
0.0
 10
68.931748
 20
98.401378
 30
0.0
 10
69.046595
 20
98.507194
 30
0.0
 10
69.117184
 20
98.667956
 30
0.0
 10
69.123326
 20
98.788130
 30
0.0
 10
69.126664
 20
98.853447
 30
0.0
 11
66.970309
 21
99.667043
 31
0.0
 11
66.863742
 21
99.658219
 31
0.0
 11
66.768934
 21
99.631758
 31
0.0
 11
66.685882
 21
99.587668
 31
0.0
 11
66.610552
 21
99.518580
 31
0.0
 11
66.565352
 21
99.434795
 31
0.0
 11
66.550283
 21
99.336312
 31
0.0
 11
66.630763
 21
99.031307
 31
0.0
 11
66.872195
 21
98.768928
 31
0.0
 11
67.274581
 21
98.549178
 31
0.0
 11
67.651980
 21
98.420560
 31
0.0
 11
68.030113
 21
98.343390
 31
0.0
 11
68.408982
 21
98.317668
 31
0.0
 11
68.624691
 21
98.327588
 31
0.0
 11
68.795567
 21
98.357353
 31
0.0
 11
68.921610
 21
98.406963
 31
0.0
 11
69.035529
 21
98.510958
 31
0.0
 11
69.103881
 21
98.659786
 31
0.0
 11
69.126664
 21
98.853447
 31
0.0
  0
LINE
  5
13e
100
AcDbEntity
  8
Layer_1
 62
7
100
AcDbLine
 10
68.610726
 20
97.851338
 30
0.0
 11
66.877706
 21
97.851338
 31
0.0
  0
SPLINE
  5
13f
100
AcDbEntity
  8
Layer_1
 62
7
100
AcDbSpline
 70
0
 71
3
 72
13
 73
9
 74
7
 40
0.000000
 40
0.000000
 40
0.000000
 40
0.000000
 40
0.165659
 40
0.300582
 40
0.413832
 40
0.527639
 40
0.663397
 40
0.829403
 40
0.829403
 40
0.829403
 40
0.829403
 10
69.126664
 20
97.355245
 30
0.0
 10
69.123425
 20
97.410500
 30
0.0
 10
69.117548
 20
97.510758
 30
0.0
 10
69.077727
 20
97.644479
 30
0.0
 10
69.008166
 20
97.746687
 30
0.0
 10
68.902254
 20
97.810702
 30
0.0
 10
68.766932
 20
97.846135
 30
0.0
 10
68.666161
 20
97.849492
 30
0.0
 10
68.610726
 20
97.851338
 30
0.0
 11
69.126664
 21
97.355245
 31
0.0
 11
69.109947
 21
97.520059
 31
0.0
 11
69.068604
 21
97.648492
 31
0.0
 11
69.002639
 21
97.740546
 31
0.0
 11
68.906912
 21
97.802097
 31
0.0
 11
68.776274
 21
97.839028
 31
0.0
 11
68.610726
 21
97.851338
 31
0.0
  0
LINE
  5
140
100
AcDbEntity
  8
Layer_1
 62
7
100
AcDbLine
 10
66.675960
 20
97.355245
 30
0.0
 11
66.510597
 21
97.355245
 31
0.0
  0
LINE
  5
141
100
AcDbEntity
  8
Layer_1
 62
7
100
AcDbLine
 10
66.510597
 20
97.355245
 30
0.0
 11
66.173251
 21
98.198604
 31
0.0
  0
LINE
  5
142
100
AcDbEntity
  8
Layer_1
 62
7
100
AcDbLine
 10
66.173251
 20
98.198604
 30
0.0
 11
66.173251
 21
98.354047
 31
0.0
  0
LINE
  5
143
100
AcDbEntity
  8
Layer_1
 62
7
100
AcDbLine
 10
66.173251
 20
98.354047
 30
0.0
 11
67.178668
 21
98.354047
 31
0.0
  0
SPLINE
  5
144
100
AcDbEntity
  8
Layer_1
 62
7
100
AcDbSpline
 70
0
 71
3
 72
13
 73
9
 74
7
 40
0.000000
 40
0.000000
 40
0.000000
 40
0.000000
 40
0.154361
 40
0.270582
 40
0.393847
 40
0.472536
 40
0.569329
 40
0.685716
 40
0.685716
 40
0.685716
 40
0.685716
 10
66.877706
 20
97.851338
 30
0.0
 10
66.825550
 20
97.849153
 30
0.0
 10
66.734124
 20
97.845322
 30
0.0
 10
66.618792
 20
97.762239
 30
0.0
 10
66.598096
 20
97.650384
 30
0.0
 10
66.610443
 20
97.551914
 30
0.0
 10
66.635644
 20
97.457448
 30
0.0
 10
66.661722
 20
97.391338
 30
0.0
 10
66.675960
 20
97.355245
 30
0.0
 11
66.877706
 21
97.851338
 31
0.0
 11
66.725205
 21
97.827453
 31
0.0
 11
66.633702
 21
97.755795
 31
0.0
 11
66.603200
 21
97.636364
 31
0.0
 11
66.611283
 21
97.558091
 31
0.0
 11
66.635534
 21
97.464385
 31
0.0
 11
66.675960
 21
97.355245
 31
0.0
  0
SPLINE
  5
145
100
AcDbEntity
  8
Layer_1
 62
7
100
AcDbSpline
 70
0
 71
3
 72
19
 73
15
 74
13
 40
0.000000
 40
0.000000
 40
0.000000
 40
0.000000
 40
0.358463
 40
0.640345
 40
0.846255
 40
1.166204
 40
1.439841
 40
1.685300
 40
1.996792
 40
2.310273
 40
2.742551
 40
2.803924
 40
2.873386
 40
2.950945
 40
2.950945
 40
2.950945
 40
2.950945
 10
67.178668
 20
98.354047
 30
0.0
 10
67.083479
 20
98.426284
 30
0.0
 10
66.913438
 20
98.555325
 30
0.0
 10
66.695078
 20
98.734033
 30
0.0
 10
66.496361
 20
98.916089
 30
0.0
 10
66.326604
 20
99.123558
 30
0.0
 10
66.197538
 20
99.375716
 30
0.0
 10
66.147463
 20
99.650143
 30
0.0
 10
66.217245
 20
99.956531
 30
0.0
 10
66.541559
 20
100.153821
 30
0.0
 10
66.813709
 20
100.170894
 30
0.0
 10
67.001295
 20
100.169434
 30
0.0
 10
67.070763
 20
100.168328
 30
0.0
 10
67.119753
 20
100.167098
 30
0.0
 10
67.145597
 20
100.166449
 30
0.0
 11
67.178668
 21
98.354047
 31
0.0
 11
66.894610
 21
98.572695
 31
0.0
 11
66.677432
 21
98.752392
 31
0.0
 11
66.527132
 21
98.893136
 31
0.0
 11
66.326860
 21
99.142652
 31
0.0
 11
66.206695
 21
99.388493
 31
0.0
 11
66.166639
 21
99.630662
 31
0.0
 11
66.252262
 21
99.930154
 31
0.0
 11
66.509128
 21
100.109851
 31
0.0
 11
66.937235
 21
100.169751
 31
0.0
 11
66.998607
 21
100.169377
 31
0.0
 11
67.068060
 21
100.168271
 31
0.0
 11
67.145597
 21
100.166449
 31
0.0
  0
LINE
  5
146
100
AcDbEntity
  8
Layer_1
 62
7
100
AcDbLine
 10
66.758642
 20
101.992074
 30
0.0
 11
68.610726
 21
101.992074
 31
0.0
  0
SPLINE
  5
147
100
AcDbEntity
  8
Layer_1
 62
7
100
AcDbSpline
 70
0
 71
3
 72
19
 73
15
 74
13
 40
0.000000
 40
0.000000
 40
0.000000
 40
0.000000
 40
0.359676
 40
0.638652
 40
0.837451
 40
1.154847
 40
1.426053
 40
1.668070
 40
1.825456
 40
1.971085
 40
2.118455
 40
2.261040
 40
2.408857
 40
2.570949
 40
2.570949
 40
2.570949
 40
2.570949
 10
67.145597
 20
100.166449
 30
0.0
 10
67.052160
 20
100.241581
 30
0.0
 10
66.886251
 20
100.374986
 30
0.0
 10
66.674471
 20
100.556967
 30
0.0
 10
66.482771
 20
100.740313
 30
0.0
 10
66.319061
 20
100.947491
 30
0.0
 10
66.193366
 20
101.197256
 30
0.0
 10
66.154289
 20
101.421284
 30
0.0
 10
66.174463
 20
101.603809
 30
0.0
 10
66.234721
 20
101.744205
 30
0.0
 10
66.333616
 20
101.853412
 30
0.0
 10
66.455884
 20
101.935395
 30
0.0
 10
66.600946
 20
101.984256
 30
0.0
 10
66.704487
 20
101.989389
 30
0.0
 10
66.758642
 20
101.992074
 30
0.0
 11
67.145597
 21
100.166449
 31
0.0
 11
66.866683
 21
100.393548
 31
0.0
 11
66.656119
 21
100.576551
 31
0.0
 11
66.513902
 21
100.715459
 31
0.0
 11
66.319142
 21
100.966076
 31
0.0
 11
66.202285
 21
101.210815
 31
0.0
 11
66.163331
 21
101.449677
 31
0.0
 11
66.182809
 21
101.605853
 31
0.0
 11
66.241238
 21
101.739246
 31
0.0
 11
66.338617
 21
101.849860
 31
0.0
 11
66.457313
 21
101.928864
 31
0.0
 11
66.597322
 21
101.976269
 31
0.0
 11
66.758642
 21
101.992074
 31
0.0
  0
LINE
  5
148
100
AcDbEntity
  8
Layer_1
 62
7
100
AcDbLine
 10
69.126664
 20
102.498090
 30
0.0
 11
69.285414
 21
102.498085
 31
0.0
  0
LINE
  5
149
100
AcDbEntity
  8
Layer_1
 62
7
100
AcDbLine
 10
72.308841
 20
79.613658
 30
0.0
 11
72.308841
 21
79.454908
 31
0.0
  0
SPLINE
  5
14a
100
AcDbEntity
  8
Layer_1
 62
7
100
AcDbSpline
 70
0
 71
3
 72
13
 73
9
 74
7
 40
0.000000
 40
0.000000
 40
0.000000
 40
0.000000
 40
0.167682
 40
0.304274
 40
0.418629
 40
0.533147
 40
0.670005
 40
0.837844
 40
0.837844
 40
0.837844
 40
0.837844
 10
68.610726
 20
101.992074
 30
0.0
 10
68.666718
 20
101.993971
 30
0.0
 10
68.768323
 20
101.997412
 30
0.0
 10
68.904595
 20
102.033791
 30
0.0
 10
69.010211
 20
102.100254
 30
0.0
 10
69.078323
 20
102.204868
 30
0.0
 10
69.117615
 20
102.340468
 30
0.0
 10
69.123450
 20
102.442105
 30
0.0
 10
69.126664
 20
102.498090
 30
0.0
 11
68.610726
 21
101.992074
 31
0.0
 11
68.777928
 21
102.004749
 31
0.0
 11
68.909117
 21
102.042783
 31
0.0
 11
69.004293
 21
102.106177
 31
0.0
 11
69.069337
 21
102.200431
 31
0.0
 11
69.110127
 21
102.331068
 31
0.0
 11
69.126664
 21
102.498090
 31
0.0
  0
LINE
  5
14b
100
AcDbEntity
  8
Layer_1
 62
7
100
AcDbLine
 10
71.673841
 20
78.696436
 30
0.0
 11
71.673841
 21
78.528867
 31
0.0
  0
SPLINE
  5
14c
100
AcDbEntity
  8
Layer_1
 62
7
100
AcDbSpline
 70
0
 71
3
 72
13
 73
9
 74
7
 40
0.000000
 40
0.000000
 40
0.000000
 40
0.000000
 40
0.212940
 40
0.394473
 40
0.564142
 40
0.723462
 40
0.911703
 40
1.136834
 40
1.136834
 40
1.136834
 40
1.136834
 10
72.308841
 20
79.454908
 30
0.0
 10
72.237600
 20
79.451360
 30
0.0
 10
72.105623
 20
79.444786
 30
0.0
 10
71.927000
 20
79.373401
 30
0.0
 10
71.799983
 20
79.253920
 30
0.0
 10
71.722869
 20
79.097094
 30
0.0
 10
71.680293
 20
78.909542
 30
0.0
 10
71.676116
 20
78.771576
 30
0.0
 10
71.673841
 20
78.696436
 30
0.0
 11
72.308841
 21
79.454908
 31
0.0
 11
72.097178
 21
79.431633
 31
0.0
 11
71.929608
 21
79.361813
 31
0.0
 11
71.806133
 21
79.245446
 31
0.0
 11
71.732640
 21
79.104089
 31
0.0
 11
71.688542
 21
78.921086
 31
0.0
 11
71.673841
 21
78.696436
 31
0.0
  0
LINE
  5
14d
100
AcDbEntity
  8
Layer_1
 62
7
100
AcDbLine
 10
72.893132
 20
79.157263
 30
0.0
 11
72.893132
 21
79.340267
 31
0.0
  0
LINE
  5
14e
100
AcDbEntity
  8
Layer_1
 62
7
100
AcDbLine
 10
72.893132
 20
79.340267
 30
0.0
 11
73.045266
 21
79.340267
 31
0.0
  0
LINE
  5
14f
100
AcDbEntity
  8
Layer_1
 62
7
100
AcDbLine
 10
73.045266
 20
79.340267
 30
0.0
 11
73.062905
 21
78.528878
 31
0.0
  0
LINE
  5
150
100
AcDbEntity
  8
Layer_1
 62
7
100
AcDbLine
 10
73.062905
 20
78.528878
 30
0.0
 11
73.931619
 21
78.528878
 31
0.0
  0
SPLINE
  5
151
100
AcDbEntity
  8
Layer_1
 62
7
100
AcDbSpline
 70
0
 71
3
 72
16
 73
12
 74
10
 40
0.000000
 40
0.000000
 40
0.000000
 40
0.000000
 40
0.155418
 40
0.299695
 40
0.432991
 40
0.674707
 40
0.871052
 40
1.029589
 40
1.201345
 40
1.390639
 40
1.617980
 40
1.617980
 40
1.617980
 40
1.617980
 10
71.673841
 20
78.528867
 30
0.0
 10
71.725425
 20
78.524039
 30
0.0
 10
71.824895
 20
78.514731
 30
0.0
 10
71.969045
 20
78.506705
 30
0.0
 10
72.142094
 20
78.502715
 30
0.0
 10
72.332859
 20
78.511299
 30
0.0
 10
72.528915
 20
78.549818
 30
0.0
 10
72.691268
 20
78.623677
 30
0.0
 10
72.812337
 20
78.754428
 30
0.0
 10
72.883241
 20
78.941906
 30
0.0
 10
72.889640
 20
79.081236
 30
0.0
 10
72.893132
 20
79.157263
 30
0.0
 11
71.673841
 21
78.528867
 31
0.0
 11
71.828674
 21
78.515394
 31
0.0
 11
71.972725
 21
78.507315
 31
0.0
 11
72.105994
 21
78.504624
 31
0.0
 11
72.347306
 21
78.518588
 31
0.0
 11
72.539130
 21
78.560480
 31
0.0
 11
72.681465
 21
78.630300
 31
0.0
 11
72.799058
 21
78.755488
 31
0.0
 11
72.869613
 21
78.931141
 31
0.0
 11
72.893132
 21
79.157263
 31
0.0
  0
LINE
  5
152
100
AcDbEntity
  8
Layer_1
 62
7
100
AcDbLine
 10
74.282193
 20
78.864017
 30
0.0
 11
74.388026
 21
78.864017
 31
0.0
  0
LINE
  5
153
100
AcDbEntity
  8
Layer_1
 62
7
100
AcDbLine
 10
74.388026
 20
78.864017
 30
0.0
 11
74.388026
 21
77.785841
 31
0.0
  0
LINE
  5
154
100
AcDbEntity
  8
Layer_1
 62
7
100
AcDbLine
 10
74.388026
 20
77.785841
 30
0.0
 11
74.282193
 21
77.785841
 31
0.0
  0
SPLINE
  5
155
100
AcDbEntity
  8
Layer_1
 62
7
100
AcDbSpline
 70
0
 71
3
 72
10
 73
6
 74
4
 40
0.000000
 40
0.000000
 40
0.000000
 40
0.000000
 40
0.193481
 40
0.355146
 40
0.546429
 40
0.546429
 40
0.546429
 40
0.546429
 10
73.931619
 20
78.528878
 30
0.0
 10
73.997602
 20
78.533249
 30
0.0
 10
74.118719
 20
78.541272
 30
0.0
 10
74.263152
 20
78.678680
 30
0.0
 10
74.275500
 20
78.798876
 30
0.0
 10
74.282193
 20
78.864017
 30
0.0
 11
73.931619
 21
78.528878
 31
0.0
 11
74.121483
 21
78.566115
 31
0.0
 11
74.238341
 21
78.677828
 31
0.0
 11
74.282193
 21
78.864017
 31
0.0
  0
LINE
  5
156
100
AcDbEntity
  8
Layer_1
 62
7
100
AcDbLine
 10
73.931619
 20
78.120979
 30
0.0
 11
72.022211
 21
78.120979
 31
0.0
  0
SPLINE
  5
157
100
AcDbEntity
  8
Layer_1
 62
7
100
AcDbSpline
 70
0
 71
3
 72
13
 73
9
 74
7
 40
0.000000
 40
0.000000
 40
0.000000
 40
0.000000
 40
0.117123
 40
0.209347
 40
0.282855
 40
0.357325
 40
0.451354
 40
0.570179
 40
0.570179
 40
0.570179
 40
0.570179
 10
74.282193
 20
77.785841
 30
0.0
 10
74.280559
 20
77.824925
 30
0.0
 10
74.277639
 20
77.894785
 30
0.0
 10
74.253735
 20
77.986936
 30
0.0
 10
74.209009
 20
78.056313
 30
0.0
 10
74.136333
 20
78.096319
 30
0.0
 10
74.042370
 20
78.117835
 30
0.0
 10
73.971296
 20
78.119853
 30
0.0
 10
73.931619
 20
78.120979
 30
0.0
 11
74.282193
 21
77.785841
 31
0.0
 11
74.272668
 21
77.902575
 31
0.0
 11
74.246935
 21
77.991137
 31
0.0
 11
74.205022
 21
78.051525
 31
0.0
 11
74.141327
 21
78.090110
 31
0.0
 11
74.050193
 21
78.113262
 31
0.0
 11
73.931619
 21
78.120979
 31
0.0
  0
LINE
  5
158
100
AcDbEntity
  8
Layer_1
 62
7
100
AcDbLine
 10
71.673841
 20
77.785841
 30
0.0
 11
71.568008
 21
77.785841
 31
0.0
  0
LINE
  5
159
100
AcDbEntity
  8
Layer_1
 62
7
100
AcDbLine
 10
71.568008
 20
77.785841
 30
0.0
 11
71.568008
 21
79.454920
 31
0.0
  0
SPLINE
  5
15a
100
AcDbEntity
  8
Layer_1
 62
7
100
AcDbSpline
 70
0
 71
3
 72
13
 73
9
 74
7
 40
0.000000
 40
0.000000
 40
0.000000
 40
0.000000
 40
0.118577
 40
0.211893
 40
0.285325
 40
0.358265
 40
0.450487
 40
0.567696
 40
0.567696
 40
0.567696
 40
0.567696
 10
72.022211
 20
78.120979
 30
0.0
 10
71.982620
 20
78.119853
 30
0.0
 10
71.911873
 20
78.117841
 30
0.0
 10
71.818526
 20
78.096483
 30
0.0
 10
71.746835
 20
78.056145
 30
0.0
 10
71.703479
 20
77.986601
 30
0.0
 10
71.679518
 20
77.894793
 30
0.0
 10
71.675878
 20
77.824936
 30
0.0
 10
71.673841
 20
77.785841
 30
0.0
 11
72.022211
 21
78.120979
 31
0.0
 11
71.903885
 21
78.113264
 31
0.0
 11
71.813486
 21
78.090115
 31
0.0
 11
71.751012
 21
78.051525
 31
0.0
 11
71.710102
 21
77.991137
 31
0.0
 11
71.684378
 21
77.902575
 31
0.0
 11
71.673841
 21
77.785841
 31
0.0
  0
LINE
  5
15b
100
AcDbEntity
  8
Layer_1
 62
7
100
AcDbLine
 10
71.470994
 20
79.516656
 30
0.0
 11
71.470994
 21
79.613670
 31
0.0
  0
LINE
  5
15c
100
AcDbEntity
  8
Layer_1
 62
7
100
AcDbLine
 10
71.470994
 20
79.613670
 30
0.0
 11
72.308841
 21
79.613658
 31
0.0
  0
SPLINE
  5
15d
100
AcDbEntity
  8
Layer_1
 62
7
100
AcDbSpline
 70
0
 71
3
 72
10
 73
6
 74
4
 40
0.000000
 40
0.000000
 40
0.000000
 40
0.000000
 40
0.031309
 40
0.069640
 40
0.124807
 40
0.124807
 40
0.124807
 40
0.124807
 10
71.568008
 20
79.454920
 30
0.0
 10
71.565589
 20
79.465553
 30
0.0
 10
71.560210
 20
79.489204
 30
0.0
 10
71.519346
 20
79.509392
 30
0.0
 10
71.488937
 20
79.513960
 30
0.0
 10
71.470994
 20
79.516656
 30
0.0
 11
71.568008
 21
79.454920
 31
0.0
 11
71.557231
 21
79.484316
 31
0.0
 11
71.524893
 21
79.504895
 31
0.0
 11
71.470994
 21
79.516656
 31
0.0
  0
LINE
  5
15e
100
AcDbEntity
  8
Layer_1
 62
7
100
AcDbLine
 10
73.267957
 20
81.695047
 30
0.0
 11
73.267957
 21
81.695047
 31
0.0
  0
SPLINE
  5
15f
100
AcDbEntity
  8
Layer_1
 62
7
100
AcDbSpline
 70
0
 71
3
 72
31
 73
27
 74
25
 40
0.000000
 40
0.000000
 40
0.000000
 40
0.000000
 40
0.303175
 40
0.597298
 40
0.901679
 40
1.210424
 40
1.501838
 40
1.800737
 40
2.063866
 40
2.304205
 40
2.542006
 40
2.774332
 40
3.016052
 40
3.282662
 40
3.582373
 40
3.874594
 40
4.177956
 40
4.487558
 40
4.776914
 40
5.071026
 40
5.336777
 40
5.578617
 40
5.816212
 40
6.051834
 40
6.295666
 40
6.563811
 40
6.563811
 40
6.563811
 40
6.563811
 10
73.267957
 20
81.695047
 30
0.0
 10
73.369344
 20
81.688600
 30
0.0
 10
73.569090
 20
81.675899
 30
0.0
 10
73.852614
 20
81.561899
 30
0.0
 10
74.098928
 20
81.382916
 30
0.0
 10
74.300364
 20
81.153984
 30
0.0
 10
74.427181
 20
80.877158
 30
0.0
 10
74.462515
 20
80.591300
 30
0.0
 10
74.435016
 20
80.322888
 30
0.0
 10
74.342766
 20
80.089599
 30
0.0
 10
74.189571
 20
79.904217
 30
0.0
 10
73.990985
 20
79.768936
 30
0.0
 10
73.754055
 20
79.690144
 30
0.0
 10
73.484036
 20
79.666158
 30
0.0
 10
73.196877
 20
79.697134
 30
0.0
 10
72.915302
 20
79.806267
 30
0.0
 10
72.668043
 20
79.983627
 30
0.0
 10
72.465476
 20
80.210225
 30
0.0
 10
72.336343
 20
80.483889
 30
0.0
 10
72.300454
 20
80.768417
 30
0.0
 10
72.327765
 20
81.036534
 30
0.0
 10
72.418024
 20
81.271753
 30
0.0
 10
72.569599
 20
81.460651
 30
0.0
 10
72.768590
 20
81.598014
 30
0.0
 10
73.007167
 20
81.681897
 30
0.0
 10
73.178318
 20
81.690527
 30
0.0
 10
73.267957
 20
81.695047
 30
0.0
 11
73.267957
 21
81.695047
 31
0.0
 11
73.569044
 21
81.659523
 31
0.0
 11
73.843181
 21
81.552955
 31
0.0
 11
74.090369
 21
81.375343
 31
0.0
 11
74.291257
 21
81.140892
 31
0.0
 11
74.411789
 21
80.875573
 31
0.0
 11
74.451966
 21
80.579386
 31
0.0
 11
74.421833
 21
80.317988
 31
0.0
 11
74.331435
 21
80.095298
 31
0.0
 11
74.180771
 21
79.911315
 31
0.0
 11
73.988947
 21
79.780247
 31
0.0
 11
73.760376
 21
79.701608
 31
0.0
 11
73.495058
 21
79.675395
 31
0.0
 11
73.197402
 21
79.710427
 31
0.0
 11
72.924734
 21
79.815525
 31
0.0
 11
72.677054
 21
79.990690
 31
0.0
 11
72.473717
 21
80.224160
 31
0.0
 11
72.351716
 21
80.486538
 31
0.0
 11
72.311048
 21
80.777825
 31
0.0
 11
72.340692
 21
81.041917
 31
0.0
 11
72.429621
 21
81.266813
 31
0.0
 11
72.577836
 21
81.452511
 31
0.0
 11
72.771130
 21
81.587252
 31
0.0
 11
73.001170
 21
81.668097
 31
0.0
 11
73.267957
 21
81.695047
 31
0.0
  0
LINE
  5
160
100
AcDbEntity
  8
Layer_1
 62
7
100
AcDbLine
 10
73.512697
 20
81.395186
 30
0.0
 11
73.512697
 21
81.395186
 31
0.0
  0
LINE
  5
161
100
AcDbEntity
  8
Layer_1
 62
7
100
AcDbLine
 10
73.023216
 20
83.531696
 30
0.0
 11
73.023216
 21
83.375150
 31
0.0
  0
SPLINE
  5
162
100
AcDbEntity
  8
Layer_1
 62
7
100
AcDbSpline
 70
0
 71
3
 72
34
 73
30
 74
28
 40
0.000000
 40
0.000000
 40
0.000000
 40
0.000000
 40
0.174911
 40
0.349813
 40
0.528605
 40
0.711959
 40
0.885764
 40
1.055775
 40
1.190312
 40
1.314886
 40
1.434410
 40
1.624762
 40
1.799632
 40
1.978754
 40
2.147371
 40
2.327475
 40
2.527057
 40
2.769683
 40
3.009068
 40
3.256536
 40
3.515298
 40
3.746944
 40
3.977157
 40
4.152854
 40
4.320554
 40
4.500348
 40
4.670686
 40
4.845135
 40
5.031048
 40
5.031048
 40
5.031048
 40
5.031048
 10
73.512697
 20
81.395186
 30
0.0
 10
73.454336
 20
81.392706
 30
0.0
 10
73.337617
 20
81.387745
 30
0.0
 10
73.165198
 20
81.346738
 30
0.0
 10
72.998051
 20
81.281532
 30
0.0
 10
72.841560
 20
81.193653
 30
0.0
 10
72.705320
 20
81.081173
 30
0.0
 10
72.602542
 20
80.957854
 30
0.0
 10
72.532783
 20
80.832239
 30
0.0
 10
72.491836
 20
80.711828
 30
0.0
 10
72.477123
 20
80.566880
 30
0.0
 10
72.497553
 20
80.404120
 30
0.0
 10
72.577013
 20
80.236995
 30
0.0
 10
72.705019
 20
80.114003
 30
0.0
 10
72.861422
 20
80.030054
 30
0.0
 10
73.039256
 20
79.982162
 30
0.0
 10
73.247026
 20
79.966826
 30
0.0
 10
73.474767
 20
79.989111
 30
0.0
 10
73.707392
 20
80.067120
 30
0.0
 10
73.921569
 20
80.195805
 30
0.0
 10
74.107023
 20
80.361545
 30
0.0
 10
74.228928
 20
80.574283
 30
0.0
 10
74.263427
 20
80.788185
 30
0.0
 10
74.238028
 20
80.980687
 30
0.0
 10
74.153159
 20
81.137706
 30
0.0
 10
74.021656
 20
81.253643
 30
0.0
 10
73.866566
 20
81.336455
 30
0.0
 10
73.695121
 20
81.386827
 30
0.0
 10
73.574781
 20
81.392341
 30
0.0
 10
73.512697
 20
81.395186
 30
0.0
 11
73.512697
 21
81.395186
 31
0.0
 11
73.338268
 21
81.382200
 31
0.0
 11
73.167759
 21
81.343248
 31
0.0
 11
73.001169
 21
81.278329
 31
0.0
 11
72.841930
 21
81.187438
 31
0.0
 11
72.708168
 21
81.076459
 31
0.0
 11
72.599883
 21
80.945395
 31
0.0
 11
72.534964
 21
80.827556
 31
0.0
 11
72.496012
 21
80.709229
 31
0.0
 11
72.483026
 21
80.590413
 31
0.0
 11
72.508506
 21
80.401774
 31
0.0
 11
72.584941
 21
80.244493
 31
0.0
 11
72.712332
 21
80.118571
 31
0.0
 11
72.860303
 21
80.037726
 31
0.0
 11
73.033753
 21
79.989220
 31
0.0
 11
73.232679
 21
79.973051
 31
0.0
 11
73.473989
 21
79.998284
 31
0.0
 11
73.701090
 21
80.073983
 31
0.0
 11
73.913980
 21
80.200150
 31
0.0
 11
74.102620
 21
80.377275
 31
0.0
 11
74.215803
 21
80.579387
 31
0.0
 11
74.253530
 21
80.806488
 31
0.0
 11
74.227072
 21
80.980181
 31
0.0
 11
74.147697
 21
81.127906
 31
0.0
 11
74.015405
 21
81.249664
 31
0.0
 11
73.865475
 21
81.330509
 31
0.0
 11
73.697905
 21
81.379016
 31
0.0
 11
73.512697
 21
81.395186
 31
0.0
  0
LINE
  5
163
100
AcDbEntity
  8
Layer_1
 62
7
100
AcDbLine
 10
74.282193
 20
83.055446
 30
0.0
 11
74.388026
 21
83.055446
 31
0.0
  0
LINE
  5
164
100
AcDbEntity
  8
Layer_1
 62
7
100
AcDbLine
 10
74.388026
 20
83.055446
 30
0.0
 11
74.388026
 21
81.908918
 31
0.0
  0
LINE
  5
165
100
AcDbEntity
  8
Layer_1
 62
7
100
AcDbLine
 10
74.388026
 20
81.908918
 30
0.0
 11
74.282193
 21
81.908918
 31
0.0
  0
SPLINE
  5
166
100
AcDbEntity
  8
Layer_1
 62
7
100
AcDbSpline
 70
0
 71
3
 72
22
 73
18
 74
16
 40
0.000000
 40
0.000000
 40
0.000000
 40
0.000000
 40
0.223308
 40
0.377104
 40
0.512236
 40
0.697055
 40
0.919138
 40
1.218298
 40
1.474660
 40
1.719594
 40
1.956201
 40
2.119820
 40
2.247236
 40
2.348661
 40
2.445951
 40
2.576541
 40
2.745811
 40
2.745811
 40
2.745811
 40
2.745811
 10
73.023216
 20
83.375150
 30
0.0
 10
72.949068
 20
83.372386
 30
0.0
 10
72.823852
 20
83.367717
 30
0.0
 10
72.656619
 20
83.290162
 30
0.0
 10
72.605859
 20
83.125573
 30
0.0
 10
72.670811
 20
82.944908
 30
0.0
 10
72.857861
 20
82.790961
 30
0.0
 10
73.098737
 20
82.691879
 30
0.0
 10
73.354760
 20
82.615815
 30
0.0
 10
73.597343
 20
82.571833
 30
0.0
 10
73.812370
 20
82.557584
 30
0.0
 10
73.988666
 20
82.566998
 30
0.0
 10
74.116423
 20
82.600291
 30
0.0
 10
74.209208
 20
82.665002
 30
0.0
 10
74.254762
 20
82.768377
 30
0.0
 10
74.278714
 20
82.898792
 30
0.0
 10
74.280938
 20
82.998923
 30
0.0
 10
74.282193
 20
83.055446
 30
0.0
 11
73.023216
 21
83.375150
 31
0.0
 11
72.801507
 21
83.348473
 31
0.0
 11
72.668481
 21
83.271289
 31
0.0
 11
72.624137
 21
83.143640
 31
0.0
 11
72.678525
 21
82.967006
 31
0.0
 11
72.841685
 21
82.816341
 31
0.0
 11
73.113618
 21
82.691645
 31
0.0
 11
73.359582
 21
82.619373
 31
0.0
 11
73.600647
 21
82.576011
 31
0.0
 11
73.836812
 21
82.561557
 31
0.0
 11
73.999971
 21
82.573806
 31
0.0
 11
74.121973
 21
82.610555
 31
0.0
 11
74.202818
 21
82.671801
 31
0.0
 11
74.246915
 21
82.758525
 31
0.0
 11
74.273373
 21
82.886406
 31
0.0
 11
74.282193
 21
83.055446
 31
0.0
  0
LINE
  5
167
100
AcDbEntity
  8
Layer_1
 62
7
100
AcDbLine
 10
73.938234
 20
82.248468
 30
0.0
 11
72.793911
 21
82.248468
 31
0.0
  0
SPLINE
  5
168
100
AcDbEntity
  8
Layer_1
 62
7
100
AcDbSpline
 70
0
 71
3
 72
13
 73
9
 74
7
 40
0.000000
 40
0.000000
 40
0.000000
 40
0.000000
 40
0.112012
 40
0.203602
 40
0.280455
 40
0.357032
 40
0.448197
 40
0.559994
 40
0.559994
 40
0.559994
 40
0.559994
 10
74.282193
 20
81.908918
 30
0.0
 10
74.280048
 20
81.946283
 30
0.0
 10
74.276150
 20
82.014200
 30
0.0
 10
74.249897
 20
82.104906
 30
0.0
 10
74.204620
 20
82.175168
 30
0.0
 10
74.134291
 20
82.220213
 30
0.0
 10
74.043340
 20
82.244850
 30
0.0
 10
73.975566
 20
82.247183
 30
0.0
 10
73.938234
 20
82.248468
 30
0.0
 11
74.282193
 21
81.908918
 31
0.0
 11
74.271171
 21
82.020386
 31
0.0
 11
74.243977
 21
82.107846
 31
0.0
 11
74.200614
 21
82.171297
 31
0.0
 11
74.137163
 21
82.214170
 31
0.0
 11
74.049703
 21
82.239893
 31
0.0
 11
73.938234
 21
82.248468
 31
0.0
  0
LINE
  5
169
100
AcDbEntity
  8
Layer_1
 62
7
100
AcDbLine
 10
72.648391
 20
81.908918
 30
0.0
 11
72.542558
 21
81.908918
 31
0.0
  0
LINE
  5
16a
100
AcDbEntity
  8
Layer_1
 62
7
100
AcDbLine
 10
72.542558
 20
81.908918
 30
0.0
 11
72.306637
 21
82.488797
 31
0.0
  0
LINE
  5
16b
100
AcDbEntity
  8
Layer_1
 62
7
100
AcDbLine
 10
72.306637
 20
82.488797
 30
0.0
 11
72.306637
 21
82.585811
 31
0.0
  0
LINE
  5
16c
100
AcDbEntity
  8
Layer_1
 62
7
100
AcDbLine
 10
72.306637
 20
82.585811
 30
0.0
 11
73.023216
 21
82.585811
 31
0.0
  0
SPLINE
  5
16d
100
AcDbEntity
  8
Layer_1
 62
7
100
AcDbSpline
 70
0
 71
3
 72
13
 73
9
 74
7
 40
0.000000
 40
0.000000
 40
0.000000
 40
0.000000
 40
0.108961
 40
0.189368
 40
0.271856
 40
0.320417
 40
0.387796
 40
0.474643
 40
0.474643
 40
0.474643
 40
0.474643
 10
72.793911
 20
82.248468
 30
0.0
 10
72.757211
 20
82.247050
 30
0.0
 10
72.693430
 20
82.244585
 30
0.0
 10
72.611871
 20
82.190445
 30
0.0
 10
72.596106
 20
82.115894
 30
0.0
 10
72.605412
 20
82.050588
 30
0.0
 10
72.622348
 20
81.984924
 30
0.0
 10
72.639009
 20
81.936299
 30
0.0
 10
72.648391
 20
81.908918
 30
0.0
 11
72.793911
 21
82.248468
 31
0.0
 11
72.686120
 21
82.232543
 31
0.0
 11
72.621444
 21
82.184770
 31
0.0
 11
72.599883
 21
82.105150
 31
0.0
 11
72.605275
 21
82.056889
 31
0.0
 11
72.621444
 21
81.991478
 31
0.0
 11
72.648391
 21
81.908918
 31
0.0
  0
LINE
  5
16e
100
AcDbEntity
  8
Layer_1
 62
7
100
AcDbLine
 10
72.344119
 20
83.531696
 30
0.0
 11
73.023216
 21
83.531696
 31
0.0
  0
SPLINE
  5
16f
100
AcDbEntity
  8
Layer_1
 62
7
100
AcDbSpline
 70
0
 71
3
 72
13
 73
9
 74
7
 40
0.000000
 40
0.000000
 40
0.000000
 40
0.000000
 40
0.479534
 40
0.829566
 40
1.085615
 40
1.137436
 40
1.196536
 40
1.263535
 40
1.263535
 40
1.263535
 40
1.263535
 10
73.023216
 20
82.585811
 30
0.0
 10
72.887483
 20
82.670787
 30
0.0
 10
72.652671
 20
82.817791
 30
0.0
 10
72.390631
 20
83.072924
 30
0.0
 10
72.304186
 20
83.289325
 30
0.0
 10
72.314037
 20
83.411772
 30
0.0
 10
72.325308
 20
83.470098
 30
0.0
 10
72.337592
 20
83.510323
 30
0.0
 10
72.344119
 20
83.531696
 30
0.0
 11
73.023216
 21
82.585811
 31
0.0
 11
72.627568
 21
82.856763
 31
0.0
 11
72.390179
 21
83.113997
 31
0.0
 11
72.311048
 21
83.357511
 31
0.0
 11
72.314725
 21
83.409202
 31
0.0
 11
72.325751
 21
83.467264
 31
0.0
 11
72.344119
 21
83.531696
 31
0.0
  0
LINE
  5
170
100
AcDbEntity
  8
Layer_1
 62
7
100
AcDbLine
 10
71.612105
 20
86.799301
 30
0.0
 11
72.370577
 21
86.799301
 31
0.0
  0
LINE
  5
171
100
AcDbEntity
  8
Layer_1
 62
7
100
AcDbLine
 10
72.370577
 20
86.799301
 30
0.0
 11
72.370577
 21
86.636140
 31
0.0
  0
SPLINE
  5
172
100
AcDbEntity
  8
Layer_1
 62
7
100
AcDbSpline
 70
0
 71
3
 72
28
 73
24
 74
22
 40
0.000000
 40
0.000000
 40
0.000000
 40
0.000000
 40
0.247689
 40
0.493872
 40
0.761682
 40
1.020355
 40
1.270078
 40
1.525251
 40
1.829342
 40
2.115027
 40
2.416858
 40
2.698377
 40
2.994892
 40
3.318601
 40
3.726000
 40
4.118528
 40
4.512235
 40
4.930097
 40
5.307042
 40
5.688732
 40
5.857462
 40
6.033891
 40
6.220909
 40
6.220909
 40
6.220909
 40
6.220909
 10
73.532540
 20
86.991122
 30
0.0
 10
73.615544
 20
86.984381
 30
0.0
 10
73.781046
 20
86.970941
 30
0.0
 10
74.011609
 20
86.850388
 30
0.0
 10
74.199290
 20
86.671092
 30
0.0
 10
74.345033
 20
86.454660
 30
0.0
 10
74.433873
 20
86.213278
 30
0.0
 10
74.462922
 20
85.943160
 30
0.0
 10
74.426498
 20
85.659250
 30
0.0
 10
74.285246
 20
85.390037
 30
0.0
 10
74.064958
 20
85.194393
 30
0.0
 10
73.802927
 20
85.058032
 30
0.0
 10
73.510352
 20
84.979795
 30
0.0
 10
73.167277
 20
84.955268
 30
0.0
 10
72.791990
 20
84.987966
 30
0.0
 10
72.407591
 20
85.101489
 30
0.0
 10
72.051997
 20
85.292382
 30
0.0
 10
71.745670
 20
85.552015
 30
0.0
 10
71.543280
 20
85.897972
 30
0.0
 10
71.494880
 20
86.210475
 30
0.0
 10
71.512697
 20
86.452443
 30
0.0
 10
71.548749
 20
86.626899
 30
0.0
 10
71.590580
 20
86.740728
 30
0.0
 10
71.612105
 20
86.799301
 30
0.0
 11
73.532540
 21
86.991122
 31
0.0
 11
73.777525
 21
86.954620
 31
0.0
 11
73.998011
 21
86.845112
 31
0.0
 11
74.193998
 21
86.662599
 31
0.0
 11
74.337315
 21
86.447257
 31
0.0
 11
74.423304
 21
86.212806
 31
0.0
 11
74.451966
 21
85.959247
 31
0.0
 11
74.407624
 21
85.658407
 31
0.0
 11
74.274598
 21
85.405583
 31
0.0
 11
74.052887
 21
85.200775
 31
0.0
 11
73.803740
 21
85.069709
 31
0.0
 11
73.517843
 21
84.991070
 31
0.0
 11
73.195197
 21
84.964857
 31
0.0
 11
72.789503
 21
85.002094
 31
0.0
 11
72.413207
 21
85.113807
 31
0.0
 11
72.066308
 21
85.299996
 31
0.0
 11
71.753954
 21
85.577563
 31
0.0
 11
71.566541
 21
85.904616
 31
0.0
 11
71.504068
 21
86.281158
 31
0.0
 11
71.516074
 21
86.449461
 31
0.0
 11
71.552087
 21
86.622175
 31
0.0
 11
71.612105
 21
86.799301
 31
0.0
  0
SPLINE
  5
173
100
AcDbEntity
  8
Layer_1
 62
7
100
AcDbSpline
 70
0
 71
3
 72
25
 73
21
 74
19
 40
0.000000
 40
0.000000
 40
0.000000
 40
0.000000
 40
0.181090
 40
0.347459
 40
0.503000
 40
0.680565
 40
0.836909
 40
0.996581
 40
1.162001
 40
1.335478
 40
1.534721
 40
1.707103
 40
1.887564
 40
2.079226
 40
2.306394
 40
2.516047
 40
2.709871
 40
2.783155
 40
2.876727
 40
2.990688
 40
2.990688
 40
2.990688
 40
2.990688
 10
72.370577
 20
86.636140
 30
0.0
 10
72.310196
 20
86.633279
 30
0.0
 10
72.194343
 20
86.627788
 30
0.0
 10
72.029783
 20
86.591179
 30
0.0
 10
71.874286
 20
86.530270
 30
0.0
 10
71.736477
 20
86.437878
 30
0.0
 10
71.640699
 20
86.298132
 30
0.0
 10
71.613855
 20
86.135696
 30
0.0
 10
71.642992
 20
85.968801
 30
0.0
 10
71.736257
 20
85.811508
 30
0.0
 10
71.871193
 20
85.687428
 30
0.0
 10
72.024692
 20
85.585175
 30
0.0
 10
72.188832
 20
85.506209
 30
0.0
 10
72.378985
 20
85.443828
 30
0.0
 10
72.583086
 20
85.395623
 30
0.0
 10
72.790966
 20
85.363132
 30
0.0
 10
72.949977
 20
85.353164
 30
0.0
 10
73.070183
 20
85.357094
 30
0.0
 10
73.163550
 20
85.364049
 30
0.0
 10
73.232370
 20
85.371090
 30
0.0
 10
73.270161
 20
85.374957
 30
0.0
 11
72.370577
 21
86.636140
 31
0.0
 11
72.190027
 21
86.622178
 31
0.0
 11
72.027602
 21
86.586164
 31
0.0
 11
71.883304
 21
86.528103
 31
0.0
 11
71.738766
 21
86.424963
 31
0.0
 11
71.652042
 21
86.294876
 31
0.0
 11
71.623132
 21
86.137843
 31
0.0
 11
71.651796
 21
85.974926
 31
0.0
 11
71.737785
 21
85.824261
 31
0.0
 11
71.881100
 21
85.685844
 31
0.0
 11
72.024418
 21
85.590056
 31
0.0
 11
72.186842
 21
85.511416
 31
0.0
 11
72.368373
 21
85.449926
 31
0.0
 11
72.589351
 21
85.397254
 31
0.0
 11
72.796608
 21
85.365651
 31
0.0
 11
72.990146
 21
85.355117
 31
0.0
 11
73.063396
 21
85.357319
 31
0.0
 11
73.156735
 21
85.363930
 31
0.0
 11
73.270161
 21
85.374957
 31
0.0
  0
LINE
  5
174
100
AcDbEntity
  8
Layer_1
 62
7
100
AcDbLine
 10
73.532540
 20
86.991119
 30
0.0
 11
73.532540
 21
86.991122
 31
0.0
  0
SPLINE
  5
175
100
AcDbEntity
  8
Layer_1
 62
7
100
AcDbSpline
 70
0
 71
3
 72
16
 73
12
 74
10
 40
0.000000
 40
0.000000
 40
0.000000
 40
0.000000
 40
0.349955
 40
0.661250
 40
0.961990
 40
1.177445
 40
1.371323
 40
1.554094
 40
1.744302
 40
1.934144
 40
2.142503
 40
2.142503
 40
2.142503
 40
2.142503
 10
73.270161
 20
85.374957
 30
0.0
 10
73.185376
 20
85.455897
 30
0.0
 10
73.025173
 20
85.608835
 30
0.0
 10
72.872592
 20
85.898563
 30
0.0
 10
72.830552
 20
86.175595
 30
0.0
 10
72.851197
 20
86.412660
 30
0.0
 10
72.907569
 20
86.603696
 30
0.0
 10
73.007115
 20
86.766822
 30
0.0
 10
73.146070
 20
86.896914
 30
0.0
 10
73.329448
 20
86.978695
 30
0.0
 10
73.462776
 20
86.986852
 30
0.0
 10
73.532540
 20
86.991119
 30
0.0
 11
73.270161
 21
85.374957
 31
0.0
 11
73.031302
 21
85.630721
 31
0.0
 11
72.887987
 21
85.907064
 31
0.0
 11
72.840215
 21
86.203985
 31
0.0
 11
72.859324
 21
86.418591
 31
0.0
 11
72.916650
 21
86.603800
 31
0.0
 11
73.012193
 21
86.759610
 31
0.0
 11
73.152326
 21
86.888226
 31
0.0
 11
73.325774
 21
86.965396
 31
0.0
 11
73.532540
 21
86.991119
 31
0.0
  0
LINE
  5
176
100
AcDbEntity
  8
Layer_1
 62
7
100
AcDbLine
 10
73.662627
 20
86.569996
 30
0.0
 11
73.662627
 21
86.569996
 31
0.0
  0
SPLINE
  5
177
100
AcDbEntity
  8
Layer_1
 62
7
100
AcDbSpline
 70
0
 71
3
 72
31
 73
27
 74
25
 40
0.000000
 40
0.000000
 40
0.000000
 40
0.000000
 40
0.165465
 40
0.319016
 40
0.467087
 40
0.625315
 40
0.773908
 40
0.930197
 40
1.094389
 40
1.247896
 40
1.407100
 40
1.559217
 40
1.717326
 40
1.888997
 40
2.057456
 40
2.214442
 40
2.366851
 40
2.528934
 40
2.680507
 40
2.839574
 40
3.000091
 40
3.152963
 40
3.316051
 40
3.469748
 40
3.628146
 40
3.798068
 40
3.798068
 40
3.798068
 40
3.798068
 10
73.662627
 20
86.569996
 30
0.0
 10
73.607368
 20
86.567578
 30
0.0
 10
73.500829
 20
86.562916
 30
0.0
 10
73.349755
 20
86.519560
 30
0.0
 10
73.213051
 20
86.447966
 30
0.0
 10
73.099303
 20
86.343904
 30
0.0
 10
73.025586
 20
86.204411
 30
0.0
 10
73.005406
 20
86.046948
 30
0.0
 10
73.025106
 20
85.888133
 30
0.0
 10
73.095161
 20
85.741969
 30
0.0
 10
73.206900
 20
85.630913
 30
0.0
 10
73.344147
 20
85.552866
 30
0.0
 10
73.499528
 20
85.507158
 30
0.0
 10
73.665981
 20
85.493924
 30
0.0
 10
73.831953
 20
85.507072
 30
0.0
 10
73.986389
 20
85.551251
 30
0.0
 10
74.124849
 20
85.627717
 30
0.0
 10
74.242958
 20
85.732182
 30
0.0
 10
74.318904
 20
85.874425
 30
0.0
 10
74.340080
 20
86.032493
 30
0.0
 10
74.318890
 20
86.191017
 30
0.0
 10
74.243014
 20
86.334522
 30
0.0
 10
74.125115
 20
86.441329
 30
0.0
 10
73.984757
 20
86.516790
 30
0.0
 10
73.829018
 20
86.562477
 30
0.0
 10
73.719374
 20
86.567432
 30
0.0
 10
73.662627
 20
86.569996
 30
0.0
 11
73.662627
 21
86.569996
 31
0.0
 11
73.497753
 21
86.556030
 31
0.0
 11
73.350028
 21
86.514137
 31
0.0
 11
73.219451
 21
86.444317
 31
0.0
 11
73.104309
 21
86.335788
 31
0.0
 11
73.035223
 21
86.204232
 31
0.0
 11
73.012193
 21
86.049649
 31
0.0
 11
73.034488
 21
85.886978
 31
0.0
 11
73.101369
 21
85.748806
 31
0.0
 11
73.212836
 21
85.635135
 31
0.0
 11
73.344637
 21
85.559189
 31
0.0
 11
73.496037
 21
85.513621
 31
0.0
 11
73.667036
 21
85.498432
 31
0.0
 11
73.834852
 21
85.513131
 31
0.0
 11
73.985518
 21
85.557228
 31
0.0
 11
74.119034
 21
85.630724
 31
0.0
 11
74.237852
 21
85.740967
 31
0.0
 11
74.309142
 21
85.874728
 31
0.0
 11
74.332905
 21
86.032010
 31
0.0
 11
74.309142
 21
86.190758
 31
0.0
 11
74.237852
 21
86.325989
 31
0.0
 11
74.119034
 21
86.437704
 31
0.0
 11
73.984047
 21
86.511198
 31
0.0
 11
73.831912
 21
86.555295
 31
0.0
 11
73.662627
 21
86.569996
 31
0.0
  0
LINE
  5
178
100
AcDbEntity
  8
Layer_1
 62
7
100
AcDbLine
 10
74.310855
 20
87.544543
 30
0.0
 11
73.576637
 21
87.544543
 31
0.0
  0
LINE
  5
179
100
AcDbEntity
  8
Layer_1
 62
7
100
AcDbLine
 10
73.576637
 20
87.544543
 30
0.0
 11
73.576637
 21
87.696678
 31
0.0
  0
SPLINE
  5
17a
100
AcDbEntity
  8
Layer_1
 62
7
100
AcDbSpline
 70
0
 71
3
 72
16
 73
12
 74
10
 40
0.000000
 40
0.000000
 40
0.000000
 40
0.000000
 40
0.286003
 40
0.578232
 40
0.904018
 40
1.220456
 40
1.517321
 40
1.811739
 40
2.013481
 40
2.236772
 40
2.484912
 40
2.484912
 40
2.484912
 40
2.484912
 10
73.353947
 20
89.434108
 30
0.0
 10
73.449792
 20
89.425550
 30
0.0
 10
73.643568
 20
89.408247
 30
0.0
 10
73.914137
 20
89.258770
 30
0.0
 10
74.138086
 20
89.039751
 30
0.0
 10
74.317323
 20
88.780216
 30
0.0
 10
74.428402
 20
88.495572
 30
0.0
 10
74.460227
 20
88.230125
 30
0.0
 10
74.439765
 20
87.990466
 30
0.0
 10
74.391864
 20
87.770509
 30
0.0
 10
74.338791
 20
87.622466
 30
0.0
 10
74.310855
 20
87.544543
 30
0.0
 11
73.353947
 21
89.434108
 31
0.0
 11
73.636415
 21
89.389276
 31
0.0
 11
73.895853
 21
89.254779
 31
0.0
 11
74.132262
 21
89.030621
 31
0.0
 11
74.309876
 21
88.768731
 31
0.0
 11
74.416444
 21
88.491653
 31
0.0
 11
74.451966
 21
88.199386
 31
0.0
 11
74.436288
 21
87.998254
 31
0.0
 11
74.389251
 21
87.779973
 31
0.0
 11
74.310855
 21
87.544543
 31
0.0
  0
LINE
  5
17b
100
AcDbEntity
  8
Layer_1
 62
7
100
AcDbLine
 10
72.901951
 20
88.314039
 30
0.0
 11
72.901951
 21
87.950238
 31
0.0
  0
LINE
  5
17c
100
AcDbEntity
  8
Layer_1
 62
7
100
AcDbLine
 10
72.901951
 20
87.950238
 30
0.0
 11
72.798322
 21
87.950238
 31
0.0
  0
SPLINE
  5
17d
100
AcDbEntity
  8
Layer_1
 62
7
100
AcDbSpline
 70
0
 71
3
 72
25
 73
21
 74
19
 40
0.000000
 40
0.000000
 40
0.000000
 40
0.000000
 40
0.196218
 40
0.379578
 40
0.558960
 40
0.745125
 40
0.925202
 40
1.114115
 40
1.292667
 40
1.459152
 40
1.629052
 40
1.794045
 40
1.963009
 40
2.145667
 40
2.357002
 40
2.542964
 40
2.717276
 40
2.891854
 40
3.078268
 40
3.289823
 40
3.289823
 40
3.289823
 40
3.289823
 10
73.576637
 20
87.696678
 30
0.0
 10
73.641461
 20
87.706858
 30
0.0
 10
73.766861
 20
87.726550
 30
0.0
 10
73.939629
 20
87.801895
 30
0.0
 10
74.087950
 20
87.911174
 30
0.0
 10
74.207071
 20
88.051636
 30
0.0
 10
74.281153
 20
88.224312
 30
0.0
 10
74.302416
 20
88.407560
 30
0.0
 10
74.282493
 20
88.586399
 30
0.0
 10
74.212240
 20
88.746252
 30
0.0
 10
74.098579
 20
88.872204
 30
0.0
 10
73.955766
 20
88.963842
 30
0.0
 10
73.790466
 20
89.018244
 30
0.0
 10
73.602343
 20
89.034038
 30
0.0
 10
73.408463
 20
89.017304
 30
0.0
 10
73.225587
 20
88.955766
 30
0.0
 10
73.079268
 20
88.848585
 30
0.0
 10
72.974099
 20
88.701156
 30
0.0
 10
72.911469
 20
88.517767
 30
0.0
 10
72.905255
 20
88.384749
 30
0.0
 10
72.901951
 20
88.314039
 30
0.0
 11
73.576637
 21
87.696678
 31
0.0
 11
73.768951
 21
87.735627
 31
0.0
 11
73.937255
 21
87.808390
 31
0.0
 11
74.081550
 21
87.914960
 31
0.0
 11
74.200368
 21
88.058276
 31
0.0
 11
74.271659
 21
88.223640
 31
0.0
 11
74.295423
 21
88.411053
 31
0.0
 11
74.272884
 21
88.588176
 31
0.0
 11
74.205268
 21
88.740312
 31
0.0
 11
74.092576
 21
88.867460
 31
0.0
 11
73.953914
 21
88.956878
 31
0.0
 11
73.793695
 21
89.010530
 31
0.0
 11
73.611915
 21
89.028414
 31
0.0
 11
73.401596
 21
89.007713
 31
0.0
 11
73.226310
 21
88.945610
 31
0.0
 11
73.086056
 21
88.842105
 31
0.0
 11
72.983776
 21
88.700625
 31
0.0
 11
72.922407
 21
88.524603
 31
0.0
 11
72.901951
 21
88.314039
 31
0.0
  0
LINE
  5
17e
100
AcDbEntity
  8
Layer_1
 62
7
100
AcDbLine
 10
72.498461
 20
87.833381
 30
0.0
 11
72.498461
 21
87.683450
 31
0.0
  0
LINE
  5
17f
100
AcDbEntity
  8
Layer_1
 62
7
100
AcDbLine
 10
72.498461
 20
87.683450
 30
0.0
 11
71.832591
 21
87.683450
 31
0.0
  0
SPLINE
  5
180
100
AcDbEntity
  8
Layer_1
 62
7
100
AcDbSpline
 70
0
 71
3
 72
25
 73
21
 74
19
 40
0.000000
 40
0.000000
 40
0.000000
 40
0.000000
 40
0.211570
 40
0.428292
 40
0.659636
 40
0.899567
 40
1.110940
 40
1.312279
 40
1.409198
 40
1.498727
 40
1.588065
 40
1.677990
 40
1.768569
 40
1.866031
 40
2.053819
 40
2.243443
 40
2.460223
 40
2.656889
 40
2.855768
 40
3.062865
 40
3.062865
 40
3.062865
 40
3.062865
 10
72.798322
 20
87.950238
 30
0.0
 10
72.786521
 20
88.020063
 30
0.0
 10
72.762633
 20
88.161415
 30
0.0
 10
72.666343
 20
88.362011
 30
0.0
 10
72.530571
 20
88.547651
 30
0.0
 10
72.364944
 20
88.706642
 30
0.0
 10
72.170607
 20
88.811372
 30
0.0
 10
71.999783
 20
88.840525
 30
0.0
 10
71.870087
 20
88.828150
 30
0.0
 10
71.783276
 20
88.793759
 30
0.0
 10
71.712710
 20
88.736633
 30
0.0
 10
71.659265
 20
88.662979
 30
0.0
 10
71.626977
 20
88.574850
 30
0.0
 10
71.615056
 20
88.449347
 30
0.0
 10
71.642825
 20
88.289264
 30
0.0
 10
71.753990
 20
88.119495
 30
0.0
 10
71.916230
 20
87.996343
 30
0.0
 10
72.100117
 20
87.906373
 30
0.0
 10
72.294258
 20
87.849118
 30
0.0
 10
72.429481
 20
87.838697
 30
0.0
 10
72.498461
 20
87.833381
 30
0.0
 11
72.798322
 21
87.950238
 31
0.0
 11
72.753493
 21
88.157004
 31
0.0
 11
72.663093
 21
88.353971
 31
0.0
 11
72.527123
 21
88.541140
 31
0.0
 11
72.350981
 21
88.704054
 31
0.0
 11
72.163568
 21
88.801803
 31
0.0
 11
71.964883
 21
88.834386
 31
0.0
 11
71.868607
 21
88.823239
 31
0.0
 11
71.785557
 21
88.789800
 31
0.0
 11
71.715734
 21
88.734067
 31
0.0
 11
71.663064
 21
88.661183
 31
0.0
 11
71.631461
 21
88.576295
 31
0.0
 11
71.620925
 21
88.479404
 31
0.0
 11
71.654735
 21
88.294685
 31
0.0
 11
71.756159
 21
88.134466
 31
0.0
 11
71.925197
 21
87.998746
 31
0.0
 11
72.101588
 21
87.911775
 31
0.0
 11
72.292676
 21
87.856654
 31
0.0
 11
72.498461
 21
87.833381
 31
0.0
  0
SPLINE
  5
181
100
AcDbEntity
  8
Layer_1
 62
7
100
AcDbSpline
 70
0
 71
3
 72
19
 73
15
 74
13
 40
0.000000
 40
0.000000
 40
0.000000
 40
0.000000
 40
0.383334
 40
0.719189
 40
1.019319
 40
1.172903
 40
1.313558
 40
1.446675
 40
1.590555
 40
1.725405
 40
1.868394
 40
2.182792
 40
2.597041
 40
3.171026
 40
3.171026
 40
3.171026
 40
3.171026
 10
71.832591
 20
87.683450
 30
0.0
 10
71.767833
 20
87.793871
 30
0.0
 10
71.646336
 20
88.001037
 30
0.0
 10
71.532830
 20
88.323761
 30
0.0
 10
71.497085
 20
88.586993
 30
0.0
 10
71.510944
 20
88.785449
 30
0.0
 10
71.546652
 20
88.924400
 30
0.0
 10
71.609323
 20
89.049674
 30
0.0
 10
71.699432
 20
89.156491
 30
0.0
 10
71.825764
 20
89.225030
 30
0.0
 10
72.024980
 20
89.254404
 30
0.0
 10
72.313658
 20
89.141138
 30
0.0
 10
72.588268
 20
88.790504
 30
0.0
 10
72.721144
 20
88.489100
 30
0.0
 10
72.798322
 20
88.314039
 30
0.0
 11
71.832591
 21
87.683450
 31
0.0
 11
71.650080
 21
88.020548
 31
0.0
 11
71.540572
 21
88.338048
 31
0.0
 11
71.504068
 21
88.635950
 31
0.0
 11
71.516074
 21
88.789064
 31
0.0
 11
71.552087
 21
88.925030
 31
0.0
 11
71.612105
 21
89.043849
 31
0.0
 11
71.707407
 21
89.151641
 31
0.0
 11
71.825735
 21
89.216316
 31
0.0
 11
71.967090
 21
89.237876
 31
0.0
 11
72.264258
 21
89.135226
 31
0.0
 11
72.541335
 21
88.827281
 31
0.0
 11
72.798322
 21
88.314039
 31
0.0
  0
LINE
  5
182
100
AcDbEntity
  8
Layer_1
 62
7
100
AcDbLine
 10
73.353958
 20
89.434108
 30
0.0
 11
73.353947
 21
89.434108
 31
0.0
  0
LINE
  5
183
100
AcDbEntity
  8
Layer_1
 62
7
100
AcDbLine
 10
74.388026
 20
94.326696
 30
0.0
 11
74.388026
 21
93.559404
 31
0.0
  0
LINE
  5
184
100
AcDbEntity
  8
Layer_1
 62
7
100
AcDbLine
 10
74.388026
 20
93.559404
 30
0.0
 11
74.282193
 21
93.559404
 31
0.0
  0
SPLINE
  5
185
100
AcDbEntity
  8
Layer_1
 62
7
100
AcDbSpline
 70
0
 71
3
 72
13
 73
9
 74
7
 40
0.000000
 40
0.000000
 40
0.000000
 40
0.000000
 40
0.093900
 40
0.169633
 40
0.227210
 40
0.727221
 40
1.078964
 40
1.406698
 40
1.406698
 40
1.406698
 40
1.406698
 10
72.798322
 20
88.314039
 30
0.0
 10
72.797043
 20
88.345314
 30
0.0
 10
72.794732
 20
88.401813
 30
0.0
 10
72.792375
 20
88.477505
 30
0.0
 10
72.789711
 20
88.688705
 30
0.0
 10
72.808214
 20
88.988637
 30
0.0
 10
73.004843
 20
89.376437
 30
0.0
 10
73.240360
 20
89.415343
 30
0.0
 10
73.353958
 20
89.434108
 30
0.0
 11
72.798322
 21
88.314039
 31
0.0
 11
72.794653
 21
88.407867
 31
0.0
 11
72.792452
 21
88.483568
 31
0.0
 11
72.791718
 21
88.541140
 31
0.0
 11
72.854191
 21
89.037233
 31
0.0
 11
73.041604
 21
89.334889
 31
0.0
 11
73.353958
 21
89.434108
 31
0.0
  0
LINE
  5
186
100
AcDbEntity
  8
Layer_1
 62
7
100
AcDbLine
 10
74.178564
 20
93.654214
 30
0.0
 11
72.915179
 21
93.654214
 31
0.0
  0
SPLINE
  5
187
100
AcDbEntity
  8
Layer_1
 62
7
100
AcDbSpline
 70
0
 71
3
 72
10
 73
6
 74
4
 40
0.000000
 40
0.000000
 40
0.000000
 40
0.000000
 40
0.054126
 40
0.100954
 40
0.158532
 40
0.158532
 40
0.158532
 40
0.158532
 10
74.282193
 20
93.559404
 30
0.0
 10
74.280346
 20
93.577920
 30
0.0
 10
74.276901
 20
93.612454
 30
0.0
 10
74.233648
 20
93.650972
 30
0.0
 10
74.198144
 20
93.653062
 30
0.0
 10
74.178564
 20
93.654214
 30
0.0
 11
74.282193
 21
93.559404
 31
0.0
 11
74.269725
 21
93.612074
 31
0.0
 11
74.235169
 21
93.643678
 31
0.0
 11
74.178564
 21
93.654214
 31
0.0
  0
LINE
  5
188
100
AcDbEntity
  8
Layer_1
 62
7
100
AcDbLine
 10
74.282193
 20
93.107408
 30
0.0
 11
74.388026
 21
93.107408
 31
0.0
  0
LINE
  5
189
100
AcDbEntity
  8
Layer_1
 62
7
100
AcDbLine
 10
74.388026
 20
93.107408
 30
0.0
 11
74.388026
 21
92.346732
 31
0.0
  0
LINE
  5
18a
100
AcDbEntity
  8
Layer_1
 62
7
100
AcDbLine
 10
74.388026
 20
92.346732
 30
0.0
 11
74.282193
 21
92.346732
 31
0.0
  0
SPLINE
  5
18b
100
AcDbEntity
  8
Layer_1
 62
7
100
AcDbSpline
 70
0
 71
3
 72
22
 73
18
 74
16
 40
0.000000
 40
0.000000
 40
0.000000
 40
0.000000
 40
0.198913
 40
0.340584
 40
0.476284
 40
0.682083
 40
0.918169
 40
1.223940
 40
1.491536
 40
1.747530
 40
1.996308
 40
2.141746
 40
2.258953
 40
2.351077
 40
2.454435
 40
2.564904
 40
2.696425
 40
2.696425
 40
2.696425
 40
2.696425
 10
72.915179
 20
93.654214
 30
0.0
 10
72.848706
 20
93.651973
 30
0.0
 10
72.734889
 20
93.648137
 30
0.0
 10
72.584780
 20
93.563858
 30
0.0
 10
72.544298
 20
93.395140
 30
0.0
 10
72.603295
 20
93.202875
 30
0.0
 10
72.786130
 20
93.023096
 30
0.0
 10
73.029059
 20
92.901240
 30
0.0
 10
73.290913
 20
92.811298
 30
0.0
 10
73.543552
 20
92.757726
 30
0.0
 10
73.760429
 20
92.742565
 30
0.0
 10
73.931083
 20
92.749064
 30
0.0
 10
74.048108
 20
92.767869
 30
0.0
 10
74.147439
 20
92.803731
 30
0.0
 10
74.224979
 20
92.874795
 30
0.0
 10
74.273385
 20
92.982507
 30
0.0
 10
74.279091
 20
93.063428
 30
0.0
 10
74.282193
 20
93.107408
 30
0.0
 11
72.915179
 21
93.654214
 31
0.0
 11
72.717969
 21
93.628244
 31
0.0
 11
72.599641
 21
93.550338
 31
0.0
 11
72.560197
 21
93.420497
 31
0.0
 11
72.613850
 21
93.221815
 31
0.0
 11
72.774805
 21
93.049101
 31
0.0
 11
73.043062
 21
92.902357
 31
0.0
 11
73.296131
 21
92.815386
 31
0.0
 11
73.546750
 21
92.763203
 31
0.0
 11
73.794919
 21
92.745811
 31
0.0
 11
73.940195
 21
92.752668
 31
0.0
 11
74.055582
 21
92.773247
 31
0.0
 11
74.141082
 21
92.807547
 31
0.0
 11
74.217518
 21
92.877122
 31
0.0
 11
74.264555
 21
92.977075
 31
0.0
 11
74.282193
 21
93.107408
 31
0.0
  0
LINE
  5
18c
100
AcDbEntity
  8
Layer_1
 62
7
100
AcDbLine
 10
74.200614
 20
92.439335
 30
0.0
 11
72.844623
 21
92.439335
 31
0.0
  0
SPLINE
  5
18d
100
AcDbEntity
  8
Layer_1
 62
7
100
AcDbSpline
 70
0
 71
3
 72
10
 73
6
 74
4
 40
0.000000
 40
0.000000
 40
0.000000
 40
0.000000
 40
0.052613
 40
0.093751
 40
0.138318
 40
0.138318
 40
0.138318
 40
0.138318
 10
74.282193
 20
92.346732
 30
0.0
 10
74.280475
 20
92.364414
 30
0.0
 10
74.277415
 20
92.395923
 30
0.0
 10
74.245401
 20
92.434905
 30
0.0
 10
74.215936
 20
92.437819
 30
0.0
 10
74.200614
 20
92.439335
 30
0.0
 11
74.282193
 21
92.346732
 31
0.0
 11
74.271171
 21
92.398177
 31
0.0
 11
74.243977
 21
92.429045
 31
0.0
 11
74.200614
 21
92.439335
 31
0.0
  0
LINE
  5
18e
100
AcDbEntity
  8
Layer_1
 62
7
100
AcDbLine
 10
74.282193
 20
91.896940
 30
0.0
 11
74.388026
 21
91.896940
 31
0.0
  0
LINE
  5
18f
100
AcDbEntity
  8
Layer_1
 62
7
100
AcDbLine
 10
74.388026
 20
91.896940
 30
0.0
 11
74.388026
 21
90.898136
 31
0.0
  0
LINE
  5
190
100
AcDbEntity
  8
Layer_1
 62
7
100
AcDbLine
 10
74.388026
 20
90.898136
 30
0.0
 11
74.282193
 21
90.898136
 31
0.0
  0
SPLINE
  5
191
100
AcDbEntity
  8
Layer_1
 62
7
100
AcDbSpline
 70
0
 71
3
 72
25
 73
21
 74
19
 40
0.000000
 40
0.000000
 40
0.000000
 40
0.000000
 40
0.071288
 40
0.136908
 40
0.199595
 40
0.267739
 40
0.331205
 40
0.397625
 40
0.607922
 40
0.845626
 40
1.151279
 40
1.417089
 40
1.674374
 40
1.927534
 40
2.071493
 40
2.187126
 40
2.277431
 40
2.380261
 40
2.489444
 40
2.619442
 40
2.619442
 40
2.619442
 40
2.619442
 10
72.844623
 20
92.439335
 30
0.0
 10
72.820822
 20
92.438320
 30
0.0
 10
72.775110
 20
92.436372
 30
0.0
 10
72.710408
 20
92.418281
 30
0.0
 10
72.652088
 20
92.387604
 30
0.0
 10
72.602810
 20
92.344080
 30
0.0
 10
72.570331
 20
92.284723
 30
0.0
 10
72.556617
 20
92.170644
 30
0.0
 10
72.606471
 20
91.996707
 30
0.0
 10
72.789779
 20
91.814688
 30
0.0
 10
73.032979
 20
91.693129
 30
0.0
 10
73.294821
 20
91.603859
 30
0.0
 10
73.549023
 20
91.551314
 30
0.0
 10
73.767289
 20
91.536616
 30
0.0
 10
73.938395
 20
91.542853
 30
0.0
 10
74.053832
 20
91.560992
 30
0.0
 10
74.152250
 20
91.595560
 30
0.0
 10
74.228814
 20
91.666104
 30
0.0
 10
74.275872
 20
91.773279
 30
0.0
 10
74.279967
 20
91.853396
 30
0.0
 10
74.282193
 20
91.896940
 30
0.0
 11
72.844623
 21
92.439335
 31
0.0
 11
72.773579
 21
92.433455
 31
0.0
 11
72.710373
 21
92.415816
 31
0.0
 11
72.655007
 21
92.386418
 31
0.0
 11
72.604785
 21
92.340360
 31
0.0
 11
72.574652
 21
92.284504
 31
0.0
 11
72.564605
 21
92.218849
 31
0.0
 11
72.618259
 21
92.015510
 31
0.0
 11
72.779214
 21
91.840592
 31
0.0
 11
73.047471
 21
91.694093
 31
0.0
 11
73.299071
 21
91.608347
 31
0.0
 11
73.551160
 21
91.556900
 31
0.0
 11
73.803739
 21
91.539751
 31
0.0
 11
73.947545
 21
91.546365
 31
0.0
 11
74.061463
 21
91.566208
 31
0.0
 11
74.145493
 21
91.599283
 31
0.0
 11
74.221437
 21
91.668613
 31
0.0
 11
74.267004
 21
91.767832
 31
0.0
 11
74.282193
 21
91.896940
 31
0.0
  0
LINE
  5
192
100
AcDbEntity
  8
Layer_1
 62
7
100
AcDbLine
 10
73.938234
 20
91.228867
 30
0.0
 11
72.782887
 21
91.228867
 31
0.0
  0
SPLINE
  5
193
100
AcDbEntity
  8
Layer_1
 62
7
100
AcDbSpline
 70
0
 71
3
 72
13
 73
9
 74
7
 40
0.000000
 40
0.000000
 40
0.000000
 40
0.000000
 40
0.110441
 40
0.200389
 40
0.275888
 40
0.351760
 40
0.442266
 40
0.552936
 40
0.552936
 40
0.552936
 40
0.552936
 10
74.282193
 20
90.898136
 30
0.0
 10
74.280033
 20
90.934973
 30
0.0
 10
74.276116
 20
91.001812
 30
0.0
 10
74.249569
 20
91.090960
 30
0.0
 10
74.203194
 20
91.159097
 30
0.0
 10
74.132587
 20
91.201776
 30
0.0
 10
74.042372
 20
91.225398
 30
0.0
 10
73.975192
 20
91.227636
 30
0.0
 10
73.938234
 20
91.228867
 30
0.0
 11
74.282193
 21
90.898136
 31
0.0
 11
74.271048
 21
91.008013
 31
0.0
 11
74.243487
 21
91.093635
 31
0.0
 11
74.199510
 21
91.155004
 31
0.0
 11
74.135692
 21
91.196039
 31
0.0
 11
74.048600
 21
91.220660
 31
0.0
 11
73.938234
 21
91.228867
 31
0.0
  0
LINE
  5
194
100
AcDbEntity
  8
Layer_1
 62
7
100
AcDbLine
 10
72.648391
 20
90.898136
 30
0.0
 11
72.538147
 21
90.898136
 31
0.0
  0
LINE
  5
195
100
AcDbEntity
  8
Layer_1
 62
7
100
AcDbLine
 10
72.538147
 20
90.898136
 30
0.0
 11
72.313252
 21
91.460376
 31
0.0
  0
LINE
  5
196
100
AcDbEntity
  8
Layer_1
 62
7
100
AcDbLine
 10
72.313252
 20
91.460376
 30
0.0
 11
72.313252
 21
91.564006
 31
0.0
  0
LINE
  5
197
100
AcDbEntity
  8
Layer_1
 62
7
100
AcDbLine
 10
72.313252
 20
91.564006
 30
0.0
 11
72.983530
 21
91.564006
 31
0.0
  0
SPLINE
  5
198
100
AcDbEntity
  8
Layer_1
 62
7
100
AcDbSpline
 70
0
 71
3
 72
13
 73
9
 74
7
 40
0.000000
 40
0.000000
 40
0.000000
 40
0.000000
 40
0.102906
 40
0.180387
 40
0.262563
 40
0.315023
 40
0.379553
 40
0.457144
 40
0.457144
 40
0.457144
 40
0.457144
 10
72.782887
 20
91.228867
 30
0.0
 10
72.748117
 20
91.227410
 30
0.0
 10
72.687166
 20
91.224856
 30
0.0
 10
72.610280
 20
91.169468
 30
0.0
 10
72.596479
 20
91.094897
 30
0.0
 10
72.604715
 20
91.029251
 30
0.0
 10
72.621518
 20
90.966274
 30
0.0
 10
72.638901
 20
90.922199
 30
0.0
 10
72.648391
 20
90.898136
 30
0.0
 11
72.782887
 21
91.228867
 31
0.0
 11
72.681221
 21
91.212943
 31
0.0
 11
72.620219
 21
91.165171
 31
0.0
 11
72.599883
 21
91.085551
 31
0.0
 11
72.605275
 21
91.033369
 31
0.0
 11
72.621444
 21
90.970898
 31
0.0
 11
72.648391
 21
90.898136
 31
0.0
  0
SPLINE
  5
199
100
AcDbEntity
  8
Layer_1
 62
7
100
AcDbSpline
 70
0
 71
3
 72
19
 73
15
 74
13
 40
0.000000
 40
0.000000
 40
0.000000
 40
0.000000
 40
0.238976
 40
0.426897
 40
0.564170
 40
0.777469
 40
0.959894
 40
1.123533
 40
1.331195
 40
1.540183
 40
1.828370
 40
1.869284
 40
1.915592
 40
1.967296
 40
1.967296
 40
1.967296
 40
1.967296
 10
72.983530
 20
91.564006
 30
0.0
 10
72.920071
 20
91.612163
 30
0.0
 10
72.806710
 20
91.698191
 30
0.0
 10
72.661135
 20
91.817328
 30
0.0
 10
72.528660
 20
91.938701
 30
0.0
 10
72.415487
 20
92.077012
 30
0.0
 10
72.329442
 20
92.245117
 30
0.0
 10
72.296057
 20
92.428068
 30
0.0
 10
72.342580
 20
92.632331
 30
0.0
 10
72.558791
 20
92.763840
 30
0.0
 10
72.740224
 20
92.775280
 30
0.0
 10
72.865282
 20
92.774241
 30
0.0
 10
72.911592
 20
92.773454
 30
0.0
 10
72.944251
 20
92.772644
 30
0.0
 10
72.961480
 20
92.772216
 30
0.0
 11
72.983530
 21
91.564006
 31
0.0
 11
72.794157
 21
91.709771
 31
0.0
 11
72.649372
 21
91.829568
 31
0.0
 11
72.549173
 21
91.923399
 31
0.0
 11
72.415658
 21
92.089741
 31
0.0
 11
72.335547
 21
92.253635
 31
0.0
 11
72.308841
 21
92.415081
 31
0.0
 11
72.365925
 21
92.614743
 31
0.0
 11
72.537169
 21
92.734540
 31
0.0
 11
72.822576
 21
92.774474
 31
0.0
 11
72.863489
 21
92.774201
 31
0.0
 11
72.909790
 21
92.773428
 31
0.0
 11
72.961480
 21
92.772216
 31
0.0
  0
LINE
  5
19a
100
AcDbEntity
  8
Layer_1
 62
7
100
AcDbLine
 10
72.703512
 20
93.989299
 30
0.0
 11
73.938234
 21
93.989299
 31
0.0
  0
SPLINE
  5
19b
100
AcDbEntity
  8
Layer_1
 62
7
100
AcDbSpline
 70
0
 71
3
 72
19
 73
15
 74
13
 40
0.000000
 40
0.000000
 40
0.000000
 40
0.000000
 40
0.239782
 40
0.425765
 40
0.558297
 40
0.769895
 40
0.950701
 40
1.112047
 40
1.216969
 40
1.314056
 40
1.412302
 40
1.507360
 40
1.605904
 40
1.713966
 40
1.713966
 40
1.713966
 40
1.713966
 10
72.961480
 20
92.772216
 30
0.0
 10
72.899190
 20
92.822303
 30
0.0
 10
72.788584
 20
92.911240
 30
0.0
 10
72.647398
 20
93.032559
 30
0.0
 10
72.519600
 20
93.154792
 30
0.0
 10
72.410458
 20
93.292909
 30
0.0
 10
72.326662
 20
93.459421
 30
0.0
 10
72.300609
 20
93.608773
 30
0.0
 10
72.314059
 20
93.730456
 30
0.0
 10
72.354231
 20
93.824054
 30
0.0
 10
72.420161
 20
93.896858
 30
0.0
 10
72.501673
 20
93.951513
 30
0.0
 10
72.598381
 20
93.984088
 30
0.0
 10
72.667409
 20
93.987509
 30
0.0
 10
72.703512
 20
93.989299
 30
0.0
 11
72.961480
 21
92.772216
 31
0.0
 11
72.775539
 21
92.923614
 31
0.0
 11
72.635163
 21
93.045616
 31
0.0
 11
72.540354
 21
93.138221
 31
0.0
 11
72.410513
 21
93.305300
 31
0.0
 11
72.332607
 21
93.468460
 31
0.0
 11
72.306637
 21
93.627702
 31
0.0
 11
72.319623
 21
93.731818
 31
0.0
 11
72.358575
 21
93.820748
 31
0.0
 11
72.423494
 21
93.894489
 31
0.0
 11
72.502626
 21
93.947160
 31
0.0
 11
72.595966
 21
93.978763
 31
0.0
 11
72.703512
 21
93.989299
 31
0.0
  0
LINE
  5
19c
100
AcDbEntity
  8
Layer_1
 62
7
100
AcDbLine
 10
74.282193
 20
94.326642
 30
0.0
 11
74.388026
 21
94.326696
 31
0.0
  0
LINE
  5
19d
100
AcDbEntity
  8
Layer_1
 62
7
100
AcDbLine
 10
74.388026
 20
97.951488
 30
0.0
 11
74.388026
 21
97.184196
 31
0.0
  0
LINE
  5
19e
100
AcDbEntity
  8
Layer_1
 62
7
100
AcDbLine
 10
74.388026
 20
97.184196
 30
0.0
 11
74.282193
 21
97.184196
 31
0.0
  0
SPLINE
  5
19f
100
AcDbEntity
  8
Layer_1
 62
7
100
AcDbSpline
 70
0
 71
3
 72
13
 73
9
 74
7
 40
0.000000
 40
0.000000
 40
0.000000
 40
0.000000
 40
0.111788
 40
0.202849
 40
0.279088
 40
0.355434
 40
0.446673
 40
0.558564
 40
0.558564
 40
0.558564
 40
0.558564
 10
73.938234
 20
93.989299
 30
0.0
 10
73.975563
 20
93.990563
 30
0.0
 10
74.043299
 20
93.992857
 30
0.0
 10
74.134149
 20
94.017105
 30
0.0
 10
74.204559
 20
94.061418
 30
0.0
 10
74.249967
 20
94.131162
 30
0.0
 10
74.276162
 20
94.221561
 30
0.0
 10
74.280051
 20
94.289319
 30
0.0
 10
74.282193
 20
94.326642
 30
0.0
 11
73.938234
 21
93.989299
 31
0.0
 11
74.049703
 21
93.997747
 31
0.0
 11
74.137163
 21
94.023101
 31
0.0
 11
74.200614
 21
94.065367
 31
0.0
 11
74.243976
 21
94.128203
 31
0.0
 11
74.271169
 21
94.215295
 31
0.0
 11
74.282193
 21
94.326642
 31
0.0
  0
LINE
  5
1a0
100
AcDbEntity
  8
Layer_1
 62
7
100
AcDbLine
 10
74.178564
 20
97.279006
 30
0.0
 11
72.915179
 21
97.279006
 31
0.0
  0
SPLINE
  5
1a1
100
AcDbEntity
  8
Layer_1
 62
7
100
AcDbSpline
 70
0
 71
3
 72
10
 73
6
 74
4
 40
0.000000
 40
0.000000
 40
0.000000
 40
0.000000
 40
0.054126
 40
0.100954
 40
0.158532
 40
0.158532
 40
0.158532
 40
0.158532
 10
74.282193
 20
97.184196
 30
0.0
 10
74.280346
 20
97.202711
 30
0.0
 10
74.276901
 20
97.237246
 30
0.0
 10
74.233648
 20
97.275764
 30
0.0
 10
74.198144
 20
97.277853
 30
0.0
 10
74.178564
 20
97.279006
 30
0.0
 11
74.282193
 21
97.184196
 31
0.0
 11
74.269725
 21
97.236866
 31
0.0
 11
74.235169
 21
97.268469
 31
0.0
 11
74.178564
 21
97.279006
 31
0.0
  0
LINE
  5
1a2
100
AcDbEntity
  8
Layer_1
 62
7
100
AcDbLine
 10
74.282193
 20
96.732200
 30
0.0
 11
74.388026
 21
96.732200
 31
0.0
  0
LINE
  5
1a3
100
AcDbEntity
  8
Layer_1
 62
7
100
AcDbLine
 10
74.388026
 20
96.732200
 30
0.0
 11
74.388026
 21
95.971524
 31
0.0
  0
LINE
  5
1a4
100
AcDbEntity
  8
Layer_1
 62
7
100
AcDbLine
 10
74.388026
 20
95.971524
 30
0.0
 11
74.282193
 21
95.971524
 31
0.0
  0
SPLINE
  5
1a5
100
AcDbEntity
  8
Layer_1
 62
7
100
AcDbSpline
 70
0
 71
3
 72
22
 73
18
 74
16
 40
0.000000
 40
0.000000
 40
0.000000
 40
0.000000
 40
0.198913
 40
0.340584
 40
0.476284
 40
0.682083
 40
0.918169
 40
1.223940
 40
1.491536
 40
1.747530
 40
1.996308
 40
2.141746
 40
2.258953
 40
2.351077
 40
2.454435
 40
2.564904
 40
2.696425
 40
2.696425
 40
2.696425
 40
2.696425
 10
72.915179
 20
97.279006
 30
0.0
 10
72.848706
 20
97.276765
 30
0.0
 10
72.734889
 20
97.272928
 30
0.0
 10
72.584780
 20
97.188650
 30
0.0
 10
72.544298
 20
97.019931
 30
0.0
 10
72.603295
 20
96.827667
 30
0.0
 10
72.786130
 20
96.647888
 30
0.0
 10
73.029059
 20
96.526031
 30
0.0
 10
73.290913
 20
96.436090
 30
0.0
 10
73.543552
 20
96.382518
 30
0.0
 10
73.760429
 20
96.367356
 30
0.0
 10
73.931083
 20
96.373856
 30
0.0
 10
74.048108
 20
96.392661
 30
0.0
 10
74.147439
 20
96.428523
 30
0.0
 10
74.224979
 20
96.499587
 30
0.0
 10
74.273385
 20
96.607298
 30
0.0
 10
74.279091
 20
96.688219
 30
0.0
 10
74.282193
 20
96.732200
 30
0.0
 11
72.915179
 21
97.279006
 31
0.0
 11
72.717969
 21
97.253035
 31
0.0
 11
72.599641
 21
97.175130
 31
0.0
 11
72.560197
 21
97.045289
 31
0.0
 11
72.613850
 21
96.846606
 31
0.0
 11
72.774805
 21
96.673893
 31
0.0
 11
73.043062
 21
96.527149
 31
0.0
 11
73.296131
 21
96.440177
 31
0.0
 11
73.546750
 21
96.387995
 31
0.0
 11
73.794919
 21
96.370603
 31
0.0
 11
73.940195
 21
96.377460
 31
0.0
 11
74.055582
 21
96.398038
 31
0.0
 11
74.141082
 21
96.432339
 31
0.0
 11
74.217518
 21
96.501913
 31
0.0
 11
74.264555
 21
96.601867
 31
0.0
 11
74.282193
 21
96.732200
 31
0.0
  0
LINE
  5
1a6
100
AcDbEntity
  8
Layer_1
 62
7
100
AcDbLine
 10
74.200614
 20
96.064126
 30
0.0
 11
72.844623
 21
96.064126
 31
0.0
  0
SPLINE
  5
1a7
100
AcDbEntity
  8
Layer_1
 62
7
100
AcDbSpline
 70
0
 71
3
 72
10
 73
6
 74
4
 40
0.000000
 40
0.000000
 40
0.000000
 40
0.000000
 40
0.052613
 40
0.093751
 40
0.138318
 40
0.138318
 40
0.138318
 40
0.138318
 10
74.282193
 20
95.971524
 30
0.0
 10
74.280475
 20
95.989206
 30
0.0
 10
74.277415
 20
96.020714
 30
0.0
 10
74.245401
 20
96.059697
 30
0.0
 10
74.215936
 20
96.062611
 30
0.0
 10
74.200614
 20
96.064126
 30
0.0
 11
74.282193
 21
95.971524
 31
0.0
 11
74.271171
 21
96.022969
 31
0.0
 11
74.243977
 21
96.053837
 31
0.0
 11
74.200614
 21
96.064126
 31
0.0
  0
LINE
  5
1a8
100
AcDbEntity
  8
Layer_1
 62
7
100
AcDbLine
 10
74.282193
 20
95.521732
 30
0.0
 11
74.388026
 21
95.521732
 31
0.0
  0
LINE
  5
1a9
100
AcDbEntity
  8
Layer_1
 62
7
100
AcDbLine
 10
74.388026
 20
95.521732
 30
0.0
 11
74.388026
 21
94.522928
 31
0.0
  0
LINE
  5
1aa
100
AcDbEntity
  8
Layer_1
 62
7
100
AcDbLine
 10
74.388026
 20
94.522928
 30
0.0
 11
74.282193
 21
94.522928
 31
0.0
  0
SPLINE
  5
1ab
100
AcDbEntity
  8
Layer_1
 62
7
100
AcDbSpline
 70
0
 71
3
 72
25
 73
21
 74
19
 40
0.000000
 40
0.000000
 40
0.000000
 40
0.000000
 40
0.071288
 40
0.136908
 40
0.199595
 40
0.267739
 40
0.331205
 40
0.397625
 40
0.607922
 40
0.845626
 40
1.151279
 40
1.417089
 40
1.674374
 40
1.927534
 40
2.071493
 40
2.187126
 40
2.277431
 40
2.380261
 40
2.489444
 40
2.619442
 40
2.619442
 40
2.619442
 40
2.619442
 10
72.844623
 20
96.064126
 30
0.0
 10
72.820822
 20
96.063112
 30
0.0
 10
72.775110
 20
96.061164
 30
0.0
 10
72.710408
 20
96.043073
 30
0.0
 10
72.652088
 20
96.012396
 30
0.0
 10
72.602810
 20
95.968872
 30
0.0
 10
72.570331
 20
95.909515
 30
0.0
 10
72.556617
 20
95.795436
 30
0.0
 10
72.606471
 20
95.621499
 30
0.0
 10
72.789779
 20
95.439480
 30
0.0
 10
73.032979
 20
95.317920
 30
0.0
 10
73.294821
 20
95.228651
 30
0.0
 10
73.549023
 20
95.176105
 30
0.0
 10
73.767289
 20
95.161408
 30
0.0
 10
73.938395
 20
95.167645
 30
0.0
 10
74.053832
 20
95.185784
 30
0.0
 10
74.152250
 20
95.220352
 30
0.0
 10
74.228814
 20
95.290896
 30
0.0
 10
74.275872
 20
95.398071
 30
0.0
 10
74.279967
 20
95.478187
 30
0.0
 10
74.282193
 20
95.521732
 30
0.0
 11
72.844623
 21
96.064126
 31
0.0
 11
72.773579
 21
96.058247
 31
0.0
 11
72.710373
 21
96.040608
 31
0.0
 11
72.655007
 21
96.011210
 31
0.0
 11
72.604785
 21
95.965152
 31
0.0
 11
72.574652
 21
95.909296
 31
0.0
 11
72.564605
 21
95.843640
 31
0.0
 11
72.618259
 21
95.640302
 31
0.0
 11
72.779214
 21
95.465384
 31
0.0
 11
73.047471
 21
95.318885
 31
0.0
 11
73.299071
 21
95.233139
 31
0.0
 11
73.551160
 21
95.181692
 31
0.0
 11
73.803739
 21
95.164543
 31
0.0
 11
73.947545
 21
95.171157
 31
0.0
 11
74.061463
 21
95.191000
 31
0.0
 11
74.145493
 21
95.224075
 31
0.0
 11
74.221437
 21
95.293405
 31
0.0
 11
74.267004
 21
95.392624
 31
0.0
 11
74.282193
 21
95.521732
 31
0.0
  0
LINE
  5
1ac
100
AcDbEntity
  8
Layer_1
 62
7
100
AcDbLine
 10
73.938234
 20
94.853658
 30
0.0
 11
72.782887
 21
94.853658
 31
0.0
  0
SPLINE
  5
1ad
100
AcDbEntity
  8
Layer_1
 62
7
100
AcDbSpline
 70
0
 71
3
 72
13
 73
9
 74
7
 40
0.000000
 40
0.000000
 40
0.000000
 40
0.000000
 40
0.110441
 40
0.200389
 40
0.275888
 40
0.351760
 40
0.442266
 40
0.552936
 40
0.552936
 40
0.552936
 40
0.552936
 10
74.282193
 20
94.522928
 30
0.0
 10
74.280033
 20
94.559765
 30
0.0
 10
74.276116
 20
94.626604
 30
0.0
 10
74.249569
 20
94.715752
 30
0.0
 10
74.203194
 20
94.783889
 30
0.0
 10
74.132587
 20
94.826567
 30
0.0
 10
74.042372
 20
94.850189
 30
0.0
 10
73.975192
 20
94.852427
 30
0.0
 10
73.938234
 20
94.853658
 30
0.0
 11
74.282193
 21
94.522928
 31
0.0
 11
74.271048
 21
94.632805
 31
0.0
 11
74.243487
 21
94.718427
 31
0.0
 11
74.199510
 21
94.779795
 31
0.0
 11
74.135692
 21
94.820830
 31
0.0
 11
74.048600
 21
94.845451
 31
0.0
 11
73.938234
 21
94.853658
 31
0.0
  0
LINE
  5
1ae
100
AcDbEntity
  8
Layer_1
 62
7
100
AcDbLine
 10
72.648391
 20
94.522928
 30
0.0
 11
72.538147
 21
94.522928
 31
0.0
  0
LINE
  5
1af
100
AcDbEntity
  8
Layer_1
 62
7
100
AcDbLine
 10
72.538147
 20
94.522928
 30
0.0
 11
72.313252
 21
95.085168
 31
0.0
  0
LINE
  5
1b0
100
AcDbEntity
  8
Layer_1
 62
7
100
AcDbLine
 10
72.313252
 20
95.085168
 30
0.0
 11
72.313252
 21
95.188797
 31
0.0
  0
LINE
  5
1b1
100
AcDbEntity
  8
Layer_1
 62
7
100
AcDbLine
 10
72.313252
 20
95.188797
 30
0.0
 11
72.983530
 21
95.188797
 31
0.0
  0
SPLINE
  5
1b2
100
AcDbEntity
  8
Layer_1
 62
7
100
AcDbSpline
 70
0
 71
3
 72
13
 73
9
 74
7
 40
0.000000
 40
0.000000
 40
0.000000
 40
0.000000
 40
0.102906
 40
0.180387
 40
0.262563
 40
0.315023
 40
0.379553
 40
0.457144
 40
0.457144
 40
0.457144
 40
0.457144
 10
72.782887
 20
94.853658
 30
0.0
 10
72.748117
 20
94.852201
 30
0.0
 10
72.687166
 20
94.849647
 30
0.0
 10
72.610280
 20
94.794259
 30
0.0
 10
72.596479
 20
94.719689
 30
0.0
 10
72.604715
 20
94.654042
 30
0.0
 10
72.621518
 20
94.591066
 30
0.0
 10
72.638901
 20
94.546991
 30
0.0
 10
72.648391
 20
94.522928
 30
0.0
 11
72.782887
 21
94.853658
 31
0.0
 11
72.681221
 21
94.837734
 31
0.0
 11
72.620219
 21
94.789963
 31
0.0
 11
72.599883
 21
94.710343
 31
0.0
 11
72.605275
 21
94.658161
 31
0.0
 11
72.621444
 21
94.595690
 31
0.0
 11
72.648391
 21
94.522928
 31
0.0
  0
SPLINE
  5
1b3
100
AcDbEntity
  8
Layer_1
 62
7
100
AcDbSpline
 70
0
 71
3
 72
19
 73
15
 74
13
 40
0.000000
 40
0.000000
 40
0.000000
 40
0.000000
 40
0.238976
 40
0.426897
 40
0.564170
 40
0.777469
 40
0.959894
 40
1.123533
 40
1.331195
 40
1.540183
 40
1.828370
 40
1.869284
 40
1.915592
 40
1.967296
 40
1.967296
 40
1.967296
 40
1.967296
 10
72.983530
 20
95.188797
 30
0.0
 10
72.920071
 20
95.236955
 30
0.0
 10
72.806710
 20
95.322982
 30
0.0
 10
72.661135
 20
95.442120
 30
0.0
 10
72.528660
 20
95.563493
 30
0.0
 10
72.415487
 20
95.701804
 30
0.0
 10
72.329442
 20
95.869909
 30
0.0
 10
72.296057
 20
96.052859
 30
0.0
 10
72.342580
 20
96.257122
 30
0.0
 10
72.558791
 20
96.388632
 30
0.0
 10
72.740224
 20
96.400072
 30
0.0
 10
72.865282
 20
96.399033
 30
0.0
 10
72.911592
 20
96.398246
 30
0.0
 10
72.944251
 20
96.397435
 30
0.0
 10
72.961480
 20
96.397008
 30
0.0
 11
72.983530
 21
95.188797
 31
0.0
 11
72.794157
 21
95.334563
 31
0.0
 11
72.649372
 21
95.454360
 31
0.0
 11
72.549173
 21
95.548190
 31
0.0
 11
72.415658
 21
95.714533
 31
0.0
 11
72.335547
 21
95.878427
 31
0.0
 11
72.308841
 21
96.039872
 31
0.0
 11
72.365925
 21
96.239534
 31
0.0
 11
72.537169
 21
96.359332
 31
0.0
 11
72.822576
 21
96.399265
 31
0.0
 11
72.863489
 21
96.398992
 31
0.0
 11
72.909790
 21
96.398219
 31
0.0
 11
72.961480
 21
96.397008
 31
0.0
  0
LINE
  5
1b4
100
AcDbEntity
  8
Layer_1
 62
7
100
AcDbLine
 10
72.703512
 20
97.614091
 30
0.0
 11
73.938234
 21
97.614091
 31
0.0
  0
SPLINE
  5
1b5
100
AcDbEntity
  8
Layer_1
 62
7
100
AcDbSpline
 70
0
 71
3
 72
19
 73
15
 74
13
 40
0.000000
 40
0.000000
 40
0.000000
 40
0.000000
 40
0.239782
 40
0.425765
 40
0.558297
 40
0.769895
 40
0.950701
 40
1.112047
 40
1.216969
 40
1.314056
 40
1.412302
 40
1.507360
 40
1.605904
 40
1.713966
 40
1.713966
 40
1.713966
 40
1.713966
 10
72.961480
 20
96.397008
 30
0.0
 10
72.899190
 20
96.447095
 30
0.0
 10
72.788584
 20
96.536031
 30
0.0
 10
72.647398
 20
96.657350
 30
0.0
 10
72.519600
 20
96.779584
 30
0.0
 10
72.410458
 20
96.917701
 30
0.0
 10
72.326662
 20
97.084212
 30
0.0
 10
72.300609
 20
97.233564
 30
0.0
 10
72.314059
 20
97.355248
 30
0.0
 10
72.354231
 20
97.448845
 30
0.0
 10
72.420161
 20
97.521650
 30
0.0
 10
72.501673
 20
97.576305
 30
0.0
 10
72.598381
 20
97.608879
 30
0.0
 10
72.667409
 20
97.612301
 30
0.0
 10
72.703512
 20
97.614091
 30
0.0
 11
72.961480
 21
96.397008
 31
0.0
 11
72.775539
 21
96.548406
 31
0.0
 11
72.635163
 21
96.670408
 31
0.0
 11
72.540354
 21
96.763013
 31
0.0
 11
72.410513
 21
96.930091
 31
0.0
 11
72.332607
 21
97.093252
 31
0.0
 11
72.306637
 21
97.252494
 31
0.0
 11
72.319623
 21
97.356610
 31
0.0
 11
72.358575
 21
97.445540
 31
0.0
 11
72.423494
 21
97.519281
 31
0.0
 11
72.502626
 21
97.571951
 31
0.0
 11
72.595966
 21
97.603555
 31
0.0
 11
72.703512
 21
97.614091
 31
0.0
  0
LINE
  5
1b6
100
AcDbEntity
  8
Layer_1
 62
7
100
AcDbLine
 10
74.282193
 20
97.951434
 30
0.0
 11
74.388026
 21
97.951488
 31
0.0
  0
LINE
  5
1b7
100
AcDbEntity
  8
Layer_1
 62
7
100
AcDbLine
 10
74.388026
 20
100.277617
 30
0.0
 11
74.388026
 21
99.265585
 31
0.0
  0
LINE
  5
1b8
100
AcDbEntity
  8
Layer_1
 62
7
100
AcDbLine
 10
74.388026
 20
99.265585
 30
0.0
 11
74.282193
 21
99.265585
 31
0.0
  0
SPLINE
  5
1b9
100
AcDbEntity
  8
Layer_1
 62
7
100
AcDbSpline
 70
0
 71
3
 72
13
 73
9
 74
7
 40
0.000000
 40
0.000000
 40
0.000000
 40
0.000000
 40
0.111788
 40
0.202849
 40
0.279088
 40
0.355434
 40
0.446673
 40
0.558564
 40
0.558564
 40
0.558564
 40
0.558564
 10
73.938234
 20
97.614091
 30
0.0
 10
73.975563
 20
97.615355
 30
0.0
 10
74.043299
 20
97.617649
 30
0.0
 10
74.134149
 20
97.641897
 30
0.0
 10
74.204559
 20
97.686210
 30
0.0
 10
74.249967
 20
97.755953
 30
0.0
 10
74.276162
 20
97.846353
 30
0.0
 10
74.280051
 20
97.914111
 30
0.0
 10
74.282193
 20
97.951434
 30
0.0
 11
73.938234
 21
97.614091
 31
0.0
 11
74.049703
 21
97.622539
 31
0.0
 11
74.137163
 21
97.647893
 31
0.0
 11
74.200614
 21
97.690158
 31
0.0
 11
74.243976
 21
97.752995
 31
0.0
 11
74.271169
 21
97.840087
 31
0.0
 11
74.282193
 21
97.951434
 31
0.0
  0
LINE
  5
1ba
100
AcDbEntity
  8
Layer_1
 62
7
100
AcDbLine
 10
73.938234
 20
99.605135
 30
0.0
 11
71.841411
 21
99.605135
 31
0.0
  0
SPLINE
  5
1bb
100
AcDbEntity
  8
Layer_1
 62
7
100
AcDbSpline
 70
0
 71
3
 72
13
 73
9
 74
7
 40
0.000000
 40
0.000000
 40
0.000000
 40
0.000000
 40
0.112012
 40
0.203602
 40
0.280455
 40
0.357032
 40
0.448197
 40
0.559994
 40
0.559994
 40
0.559994
 40
0.559994
 10
74.282193
 20
99.265585
 30
0.0
 10
74.280048
 20
99.302949
 30
0.0
 10
74.276150
 20
99.370866
 30
0.0
 10
74.249897
 20
99.461573
 30
0.0
 10
74.204620
 20
99.531834
 30
0.0
 10
74.134291
 20
99.576880
 30
0.0
 10
74.043340
 20
99.601517
 30
0.0
 10
73.975566
 20
99.603850
 30
0.0
 10
73.938234
 20
99.605135
 30
0.0
 11
74.282193
 21
99.265585
 31
0.0
 11
74.271171
 21
99.377053
 31
0.0
 11
74.243977
 21
99.464513
 31
0.0
 11
74.200614
 21
99.527964
 31
0.0
 11
74.137163
 21
99.570836
 31
0.0
 11
74.049703
 21
99.596560
 31
0.0
 11
73.938234
 21
99.605135
 31
0.0
  0
LINE
  5
1bc
100
AcDbEntity
  8
Layer_1
 62
7
100
AcDbLine
 10
71.673841
 20
99.265585
 30
0.0
 11
71.568008
 21
99.265585
 31
0.0
  0
LINE
  5
1bd
100
AcDbEntity
  8
Layer_1
 62
7
100
AcDbLine
 10
71.568008
 20
99.265585
 30
0.0
 11
71.265943
 21
100.035081
 31
0.0
  0
LINE
  5
1be
100
AcDbEntity
  8
Layer_1
 62
7
100
AcDbLine
 10
71.265943
 20
100.035081
 30
0.0
 11
71.356341
 21
100.035081
 31
0.0
  0
SPLINE
  5
1bf
100
AcDbEntity
  8
Layer_1
 62
7
100
AcDbSpline
 70
0
 71
3
 72
13
 73
9
 74
7
 40
0.000000
 40
0.000000
 40
0.000000
 40
0.000000
 40
0.114218
 40
0.201922
 40
0.297705
 40
0.348325
 40
0.406846
 40
0.473956
 40
0.473956
 40
0.473956
 40
0.473956
 10
71.841411
 20
99.605135
 30
0.0
 10
71.802695
 20
99.603364
 30
0.0
 10
71.734252
 20
99.600234
 30
0.0
 10
71.649267
 20
99.534300
 30
0.0
 10
71.635661
 20
99.452123
 30
0.0
 10
71.641826
 20
99.384427
 30
0.0
 10
71.653874
 20
99.326658
 30
0.0
 10
71.666889
 20
99.286850
 30
0.0
 10
71.673841
 20
99.265585
 30
0.0
 11
71.841411
 21
99.605135
 31
0.0
 11
71.728721
 21
99.586516
 31
0.0
 11
71.661104
 21
99.530659
 31
0.0
 11
71.638564
 21
99.437565
 31
0.0
 11
71.642487
 21
99.387098
 31
0.0
 11
71.654247
 21
99.329770
 31
0.0
 11
71.673841
 21
99.265585
 31
0.0
  0
LINE
  5
1c0
100
AcDbEntity
  8
Layer_1
 62
7
100
AcDbLine
 10
71.517298
 20
99.940274
 30
0.0
 11
73.938234
 21
99.940274
 31
0.0
  0
SPLINE
  5
1c1
100
AcDbEntity
  8
Layer_1
 62
7
100
AcDbSpline
 70
0
 71
3
 72
10
 73
6
 74
4
 40
0.000000
 40
0.000000
 40
0.000000
 40
0.000000
 40
0.065222
 40
0.127490
 40
0.197130
 40
0.197130
 40
0.197130
 40
0.197130
 10
71.356341
 20
100.035081
 30
0.0
 10
71.367735
 20
100.016249
 30
0.0
 10
71.390007
 20
99.979438
 30
0.0
 10
71.449750
 20
99.945108
 30
0.0
 10
71.493959
 20
99.941944
 30
0.0
 10
71.517298
 20
99.940274
 30
0.0
 11
71.356341
 21
100.035081
 31
0.0
 11
71.394807
 21
99.982409
 31
0.0
 11
71.448458
 21
99.950806
 31
0.0
 11
71.517298
 21
99.940274
 31
0.0
  0
LINE
  5
1c2
100
AcDbEntity
  8
Layer_1
 62
7
100
AcDbLine
 10
74.282193
 20
100.277617
 30
0.0
 11
74.388026
 21
100.277617
 31
0.0
  0
SPLINE
  5
1c3
100
AcDbEntity
  8
Layer_1
 62
7
100
AcDbSpline
 70
0
 71
3
 72
13
 73
9
 74
7
 40
0.000000
 40
0.000000
 40
0.000000
 40
0.000000
 40
0.111788
 40
0.202849
 40
0.279088
 40
0.355435
 40
0.446674
 40
0.558564
 40
0.558564
 40
0.558564
 40
0.558564
 10
73.938234
 20
99.940274
 30
0.0
 10
73.975563
 20
99.941538
 30
0.0
 10
74.043299
 20
99.943831
 30
0.0
 10
74.134149
 20
99.968079
 30
0.0
 10
74.204559
 20
100.012393
 30
0.0
 10
74.249967
 20
100.082137
 30
0.0
 10
74.276161
 20
100.172537
 30
0.0
 10
74.280051
 20
100.240294
 30
0.0
 10
74.282193
 20
100.277617
 30
0.0
 11
73.938234
 21
99.940274
 31
0.0
 11
74.049703
 21
99.948722
 31
0.0
 11
74.137163
 21
99.974075
 31
0.0
 11
74.200614
 21
100.016341
 31
0.0
 11
74.243976
 21
100.079179
 31
0.0
 11
74.271169
 21
100.166271
 31
0.0
 11
74.282193
 21
100.277617
 31
0.0
  0
LINE
  5
1c4
100
AcDbEntity
  8
Layer_1
 62
7
100
AcDbLine
 10
73.107002
 20
102.182617
 30
0.0
 11
73.107002
 21
100.760482
 31
0.0
  0
SPLINE
  5
1c5
100
AcDbEntity
  8
Layer_1
 62
7
100
AcDbSpline
 70
0
 71
3
 72
28
 73
24
 74
22
 40
0.000000
 40
0.000000
 40
0.000000
 40
0.000000
 40
0.472569
 40
0.852778
 40
1.174489
 40
1.402751
 40
1.628574
 40
1.874917
 40
2.111963
 40
2.342547
 40
2.579109
 40
2.863012
 40
3.143334
 40
3.434544
 40
3.736483
 40
4.010017
 40
4.283093
 40
4.488387
 40
4.681143
 40
4.879446
 40
5.070478
 40
5.267348
 40
5.479932
 40
5.479932
 40
5.479932
 40
5.479932
 10
73.834605
 20
102.248761
 30
0.0
 10
73.954331
 20
102.145804
 30
0.0
 10
74.170384
 20
101.960010
 30
0.0
 10
74.395293
 20
101.631374
 30
0.0
 10
74.468978
 20
101.321220
 30
0.0
 10
74.429787
 20
101.060847
 30
0.0
 10
74.319689
 20
100.850113
 30
0.0
 10
74.148336
 20
100.683276
 30
0.0
 10
73.947348
 20
100.553026
 30
0.0
 10
73.723598
 20
100.474263
 30
0.0
 10
73.472627
 20
100.449392
 30
0.0
 10
73.205009
 20
100.478393
 30
0.0
 10
72.933564
 20
100.573805
 30
0.0
 10
72.685747
 20
100.730290
 30
0.0
 10
72.475633
 20
100.933205
 30
0.0
 10
72.338537
 20
101.186740
 30
0.0
 10
72.300622
 20
101.438981
 30
0.0
 10
72.326383
 20
101.663720
 30
0.0
 10
72.409214
 20
101.848154
 30
0.0
 10
72.541760
 20
101.994019
 30
0.0
 10
72.708660
 20
102.098827
 30
0.0
 10
72.899609
 20
102.165962
 30
0.0
 10
73.036125
 20
102.176925
 30
0.0
 10
73.107002
 20
102.182617
 30
0.0
 11
73.834605
 21
102.248761
 31
0.0
 11
74.177584
 21
101.923667
 31
0.0
 11
74.383371
 21
101.603962
 31
0.0
 11
74.451966
 21
101.289649
 31
0.0
 11
74.417424
 21
101.064016
 31
0.0
 11
74.313796
 21
100.863374
 31
0.0
 11
74.141082
 21
100.687719
 31
0.0
 11
73.941175
 21
100.560328
 31
0.0
 11
73.723629
 21
100.483893
 31
0.0
 11
73.488443
 21
100.458414
 31
0.0
 11
73.206222
 21
100.489282
 31
0.0
 11
72.941639
 21
100.581887
 31
0.0
 11
72.694693
 21
100.736228
 31
0.0
 11
72.481558
 21
100.950099
 31
0.0
 11
72.353676
 21
101.191898
 31
0.0
 11
72.311048
 21
101.461626
 31
0.0
 11
72.337507
 21
101.665208
 31
0.0
 11
72.416882
 21
101.840863
 31
0.0
 11
72.549173
 21
101.988589
 31
0.0
 11
72.710128
 21
102.091480
 31
0.0
 11
72.896072
 21
102.156157
 31
0.0
 11
73.107002
 21
102.182617
 31
0.0
  0
LINE
  5
1c6
100
AcDbEntity
  8
Layer_1
 62
7
100
AcDbLine
 10
73.689086
 20
102.248770
 30
0.0
 11
73.834605
 21
102.248761
 31
0.0
  0
SPLINE
  5
1c7
100
AcDbEntity
  8
Layer_1
 62
7
100
AcDbSpline
 70
0
 71
3
 72
19
 73
15
 74
13
 40
0.000000
 40
0.000000
 40
0.000000
 40
0.000000
 40
0.052240
 40
0.094158
 40
0.125763
 40
0.351778
 40
0.565297
 40
0.775191
 40
0.998571
 40
1.204161
 40
1.416703
 40
1.676244
 40
1.975731
 40
2.339903
 40
2.339903
 40
2.339903
 40
2.339903
 10
73.107002
 20
100.760482
 30
0.0
 10
73.124395
 20
100.759628
 30
0.0
 10
73.155743
 20
100.758090
 30
0.0
 10
73.197639
 20
100.756533
 30
0.0
 10
73.297465
 20
100.754868
 30
0.0
 10
73.454986
 20
100.768122
 30
0.0
 10
73.664610
 20
100.828019
 30
0.0
 10
73.855919
 20
100.930331
 30
0.0
 10
74.019159
 20
101.072071
 30
0.0
 10
74.125150
 20
101.263099
 30
0.0
 10
74.159476
 20
101.490930
 30
0.0
 10
74.105008
 20
101.748203
 30
0.0
 10
73.939879
 20
102.014055
 30
0.0
 10
73.777945
 20
102.165608
 30
0.0
 10
73.689086
 20
102.248770
 30
0.0
 11
73.107002
 21
100.760482
 31
0.0
 11
73.159185
 21
100.758036
 31
0.0
 11
73.201078
 21
100.756569
 31
0.0
 11
73.232679
 21
100.756079
 31
0.0
 11
73.457821
 21
100.775923
 31
0.0
 11
73.662873
 21
100.835454
 31
0.0
 11
73.847836
 21
100.934672
 31
0.0
 11
74.013201
 21
101.084849
 31
0.0
 11
74.112420
 21
101.264913
 31
0.0
 11
74.145493
 21
101.474865
 31
0.0
 11
74.094781
 21
101.729404
 31
0.0
 11
73.942646
 21
101.987372
 31
0.0
 11
73.689086
 21
102.248770
 31
0.0
  0
LINE
  5
1c8
100
AcDbEntity
  8
Layer_1
 62
7
100
AcDbLine
 10
72.996758
 20
100.780325
 30
0.0
 11
72.996758
 21
101.821020
 31
0.0
  0
LINE
  5
1c9
100
AcDbEntity
  8
Layer_1
 62
7
100
AcDbLine
 10
74.388026
 20
104.738051
 30
0.0
 11
74.388026
 21
103.970760
 31
0.0
  0
LINE
  5
1ca
100
AcDbEntity
  8
Layer_1
 62
7
100
AcDbLine
 10
74.388026
 20
103.970760
 30
0.0
 11
74.282193
 21
103.970760
 31
0.0
  0
SPLINE
  5
1cb
100
AcDbEntity
  8
Layer_1
 62
7
100
AcDbSpline
 70
0
 71
3
 72
19
 73
15
 74
13
 40
0.000000
 40
0.000000
 40
0.000000
 40
0.000000
 40
0.145254
 40
0.279445
 40
0.407313
 40
0.544742
 40
0.675244
 40
0.811784
 40
0.949296
 40
1.085120
 40
1.230577
 40
1.369728
 40
1.508479
 40
1.652506
 40
1.652506
 40
1.652506
 40
1.652506
 10
72.996758
 20
101.821020
 30
0.0
 10
72.948739
 20
101.813961
 30
0.0
 10
72.856358
 20
101.800381
 30
0.0
 10
72.728362
 20
101.752085
 30
0.0
 10
72.613769
 20
101.682556
 30
0.0
 10
72.520894
 20
101.585978
 30
0.0
 10
72.461223
 20
101.462419
 30
0.0
 10
72.444068
 20
101.326765
 30
0.0
 10
72.461892
 20
101.189565
 30
0.0
 10
72.521586
 20
101.060997
 30
0.0
 10
72.614831
 20
100.954311
 30
0.0
 10
72.728653
 20
100.869678
 30
0.0
 10
72.856843
 20
100.808470
 30
0.0
 10
72.949543
 20
100.789823
 30
0.0
 10
72.996758
 20
100.780325
 30
0.0
 11
72.996758
 21
101.821020
 31
0.0
 11
72.853934
 21
101.794560
 31
0.0
 11
72.728257
 21
101.747523
 31
0.0
 11
72.619729
 21
101.679908
 31
0.0
 11
72.525410
 21
101.579954
 31
0.0
 11
72.468818
 21
101.462361
 31
0.0
 11
72.449952
 21
101.327131
 31
0.0
 11
72.468818
 21
101.190919
 31
0.0
 11
72.525410
 21
101.067447
 31
0.0
 11
72.619729
 21
100.956714
 31
0.0
 11
72.731197
 21
100.873419
 31
0.0
 11
72.856874
 21
100.814622
 31
0.0
 11
72.996758
 21
100.780325
 31
0.0
  0
LINE
  5
1cc
100
AcDbEntity
  8
Layer_1
 62
7
100
AcDbLine
 10
74.174155
 20
104.063363
 30
0.0
 11
72.811550
 21
104.063363
 31
0.0
  0
SPLINE
  5
1cd
100
AcDbEntity
  8
Layer_1
 62
7
100
AcDbSpline
 70
0
 71
3
 72
10
 73
6
 74
4
 40
0.000000
 40
0.000000
 40
0.000000
 40
0.000000
 40
0.053306
 40
0.100738
 40
0.159705
 40
0.159705
 40
0.159705
 40
0.159705
 10
74.282193
 20
103.970760
 30
0.0
 10
74.279757
 20
103.988941
 30
0.0
 10
74.275154
 20
104.023300
 30
0.0
 10
74.230177
 20
104.060229
 30
0.0
 10
74.194132
 20
104.062245
 30
0.0
 10
74.174155
 20
104.063363
 30
0.0
 11
74.282193
 21
103.970760
 31
0.0
 11
74.268231
 21
104.022205
 31
0.0
 11
74.232217
 21
104.053073
 31
0.0
 11
74.174155
 21
104.063363
 31
0.0
  0
LINE
  5
1ce
100
AcDbEntity
  8
Layer_1
 62
7
100
AcDbLine
 10
74.282193
 20
103.454821
 30
0.0
 11
74.388026
 21
103.454821
 31
0.0
  0
LINE
  5
1cf
100
AcDbEntity
  8
Layer_1
 62
7
100
AcDbLine
 10
74.388026
 20
103.454821
 30
0.0
 11
74.388026
 21
102.451608
 31
0.0
  0
LINE
  5
1d0
100
AcDbEntity
  8
Layer_1
 62
7
100
AcDbLine
 10
74.388026
 20
102.451608
 30
0.0
 11
74.282193
 21
102.451608
 31
0.0
  0
SPLINE
  5
1d1
100
AcDbEntity
  8
Layer_1
 62
7
100
AcDbSpline
 70
0
 71
3
 72
22
 73
18
 74
16
 40
0.000000
 40
0.000000
 40
0.000000
 40
0.000000
 40
0.142855
 40
0.253426
 40
0.375536
 40
0.600018
 40
0.853205
 40
1.175290
 40
1.462857
 40
1.735814
 40
1.999711
 40
2.139288
 40
2.247966
 40
2.329818
 40
2.418756
 40
2.524309
 40
2.656117
 40
2.656117
 40
2.656117
 40
2.656117
 10
72.811550
 20
104.063363
 30
0.0
 10
72.763081
 20
104.061092
 30
0.0
 10
72.677096
 20
104.057065
 30
0.0
 10
72.570865
 20
103.972036
 30
0.0
 10
72.546269
 20
103.813353
 30
0.0
 10
72.600662
 20
103.613609
 30
0.0
 10
72.789180
 20
103.413801
 30
0.0
 10
73.043046
 20
103.274440
 30
0.0
 10
73.318748
 20
103.170075
 30
0.0
 10
73.587298
 20
103.107296
 30
0.0
 10
73.812948
 20
103.089666
 30
0.0
 10
73.983887
 20
103.096489
 30
0.0
 10
74.092578
 20
103.115301
 30
0.0
 10
74.180103
 20
103.152910
 30
0.0
 10
74.240382
 20
103.226785
 30
0.0
 10
74.275124
 20
103.331598
 30
0.0
 10
74.279669
 20
103.410825
 30
0.0
 10
74.282193
 20
103.454821
 30
0.0
 11
72.811550
 21
104.063363
 31
0.0
 11
72.670685
 21
104.039599
 31
0.0
 11
72.586166
 21
103.968308
 31
0.0
 11
72.557993
 21
103.849492
 31
0.0
 11
72.613359
 21
103.631945
 31
0.0
 11
72.779458
 21
103.440856
 31
0.0
 11
73.056290
 21
103.276228
 31
0.0
 11
73.325284
 21
103.174558
 31
0.0
 11
73.591338
 21
103.113557
 31
0.0
 11
73.854451
 21
103.093224
 31
0.0
 11
73.993846
 21
103.100327
 31
0.0
 11
74.100414
 21
103.121639
 31
0.0
 11
74.174155
 21
103.157164
 31
0.0
 11
74.232217
 21
103.224535
 31
0.0
 11
74.268230
 21
103.323754
 31
0.0
 11
74.282193
 21
103.454821
 31
0.0
  0
LINE
  5
1d2
100
AcDbEntity
  8
Layer_1
 62
7
100
AcDbLine
 10
73.938234
 20
102.786747
 30
0.0
 11
72.811550
 21
102.786747
 31
0.0
  0
SPLINE
  5
1d3
100
AcDbEntity
  8
Layer_1
 62
7
100
AcDbSpline
 70
0
 71
3
 72
13
 73
9
 74
7
 40
0.000000
 40
0.000000
 40
0.000000
 40
0.000000
 40
0.111768
 40
0.202656
 40
0.278502
 40
0.354400
 40
0.445359
 40
0.557138
 40
0.557138
 40
0.557138
 40
0.557138
 10
74.282193
 20
102.451608
 30
0.0
 10
74.280054
 20
102.488890
 30
0.0
 10
74.276176
 20
102.556487
 30
0.0
 10
74.250036
 20
102.646581
 30
0.0
 10
74.204501
 20
102.715811
 30
0.0
 10
74.134003
 20
102.759372
 30
0.0
 10
74.043259
 20
102.783243
 30
0.0
 10
73.975560
 20
102.785502
 30
0.0
 10
73.938234
 20
102.786747
 30
0.0
 11
74.282193
 21
102.451608
 31
0.0
 11
74.271171
 21
102.562831
 31
0.0
 11
74.243977
 21
102.649556
 31
0.0
 11
74.200614
 21
102.711783
 31
0.0
 11
74.137163
 21
102.753430
 31
0.0
 11
74.049703
 21
102.778418
 31
0.0
 11
73.938234
 21
102.786747
 31
0.0
  0
LINE
  5
1d4
100
AcDbEntity
  8
Layer_1
 62
7
100
AcDbLine
 10
72.648391
 20
102.451608
 30
0.0
 11
72.538147
 21
102.451608
 31
0.0
  0
LINE
  5
1d5
100
AcDbEntity
  8
Layer_1
 62
7
100
AcDbLine
 10
72.538147
 20
102.451608
 30
0.0
 11
72.304433
 21
103.024872
 31
0.0
  0
LINE
  5
1d6
100
AcDbEntity
  8
Layer_1
 62
7
100
AcDbLine
 10
72.304433
 20
103.024872
 30
0.0
 11
72.304433
 21
103.117478
 31
0.0
  0
LINE
  5
1d7
100
AcDbEntity
  8
Layer_1
 62
7
100
AcDbLine
 10
72.304433
 20
103.117478
 30
0.0
 11
73.029832
 21
103.117478
 31
0.0
  0
SPLINE
  5
1d8
100
AcDbEntity
  8
Layer_1
 62
7
100
AcDbSpline
 70
0
 71
3
 72
13
 73
9
 74
7
 40
0.000000
 40
0.000000
 40
0.000000
 40
0.000000
 40
0.122339
 40
0.209786
 40
0.294190
 40
0.339196
 40
0.405018
 40
0.492387
 40
0.492387
 40
0.492387
 40
0.492387
 10
72.811550
 20
102.786747
 30
0.0
 10
72.770557
 20
102.785324
 30
0.0
 10
72.700263
 20
102.782883
 30
0.0
 10
72.608748
 20
102.730396
 30
0.0
 10
72.588669
 20
102.653787
 30
0.0
 10
72.599849
 20
102.589637
 30
0.0
 10
72.619202
 20
102.526288
 30
0.0
 10
72.637790
 20
102.478731
 30
0.0
 10
72.648391
 20
102.451608
 30
0.0
 11
72.811550
 21
102.786747
 31
0.0
 11
72.690284
 21
102.770579
 31
0.0
 11
72.617524
 21
102.722072
 31
0.0
 11
72.593271
 21
102.641228
 31
0.0
 11
72.599395
 21
102.596640
 31
0.0
 11
72.617768
 21
102.533434
 31
0.0
 11
72.648391
 21
102.451608
 31
0.0
  0
LINE
  5
1d9
100
AcDbEntity
  8
Layer_1
 62
7
100
AcDbLine
 10
72.782887
 20
104.400706
 30
0.0
 11
73.938234
 21
104.400706
 31
0.0
  0
SPLINE
  5
1da
100
AcDbEntity
  8
Layer_1
 62
7
100
AcDbSpline
 70
0
 71
3
 72
16
 73
12
 74
10
 40
0.000000
 40
0.000000
 40
0.000000
 40
0.000000
 40
0.242023
 40
0.443312
 40
0.604441
 40
0.838594
 40
1.033177
 40
1.200412
 40
1.414140
 40
1.616285
 40
1.885297
 40
1.885297
 40
1.885297
 40
1.885297
 10
73.029832
 20
103.117478
 30
0.0
 10
72.965621
 20
103.166331
 30
0.0
 10
72.848008
 20
103.255814
 30
0.0
 10
72.693591
 20
103.385399
 30
0.0
 10
72.549528
 20
103.522744
 30
0.0
 10
72.423739
 20
103.674763
 30
0.0
 10
72.327998
 20
103.851870
 30
0.0
 10
72.291795
 20
104.041925
 30
0.0
 10
72.332267
 20
104.246496
 30
0.0
 10
72.532723
 20
104.390351
 30
0.0
 10
72.691966
 20
104.396942
 30
0.0
 10
72.782887
 20
104.400706
 30
0.0
 11
73.029832
 21
103.117478
 31
0.0
 11
72.838500
 21
103.265693
 31
0.0
 11
72.684895
 21
103.395779
 31
0.0
 11
72.569016
 21
103.507738
 31
0.0
 11
72.422028
 21
103.690006
 31
0.0
 11
72.333833
 21
103.863455
 31
0.0
 11
72.304433
 21
104.028085
 31
0.0
 11
72.357596
 21
104.235096
 31
0.0
 11
72.517081
 21
104.359303
 31
0.0
 11
72.782887
 21
104.400706
 31
0.0
  0
LINE
  5
1db
100
AcDbEntity
  8
Layer_1
 62
7
100
AcDbLine
 10
74.282193
 20
104.738051
 30
0.0
 11
74.388026
 21
104.738051
 31
0.0
  0
SPLINE
  5
1dc
100
AcDbEntity
  8
Layer_1
 62
7
100
AcDbSpline
 70
0
 71
3
 72
13
 73
9
 74
7
 40
0.000000
 40
0.000000
 40
0.000000
 40
0.000000
 40
0.111788
 40
0.202849
 40
0.279089
 40
0.355435
 40
0.446673
 40
0.558565
 40
0.558565
 40
0.558565
 40
0.558565
 10
73.938234
 20
104.400706
 30
0.0
 10
73.975563
 20
104.401970
 30
0.0
 10
74.043299
 20
104.404265
 30
0.0
 10
74.134150
 20
104.428512
 30
0.0
 10
74.204558
 20
104.472827
 30
0.0
 10
74.249967
 20
104.542571
 30
0.0
 10
74.276162
 20
104.632971
 30
0.0
 10
74.280051
 20
104.700728
 30
0.0
 10
74.282193
 20
104.738051
 30
0.0
 11
73.938234
 21
104.400706
 31
0.0
 11
74.049703
 21
104.409155
 31
0.0
 11
74.137163
 21
104.434509
 31
0.0
 11
74.200614
 21
104.476776
 31
0.0
 11
74.243976
 21
104.539613
 31
0.0
 11
74.271169
 21
104.626704
 31
0.0
 11
74.282193
 21
104.738051
 31
0.0
  0
LINE
  5
1dd
100
AcDbEntity
  8
Layer_1
 62
7
100
AcDbLine
 10
74.319675
 20
105.013658
 30
0.0
 11
73.708929
 21
105.013658
 31
0.0
  0
LINE
  5
1de
100
AcDbEntity
  8
Layer_1
 62
7
100
AcDbLine
 10
73.708929
 20
105.013658
 30
0.0
 11
73.708929
 21
105.163589
 31
0.0
  0
SPLINE
  5
1df
100
AcDbEntity
  8
Layer_1
 62
7
100
AcDbSpline
 70
0
 71
3
 72
16
 73
12
 74
10
 40
0.000000
 40
0.000000
 40
0.000000
 40
0.000000
 40
0.187489
 40
0.373908
 40
0.578843
 40
0.775708
 40
0.966995
 40
1.162623
 40
1.328641
 40
1.515454
 40
1.726375
 40
1.726375
 40
1.726375
 40
1.726375
 10
73.770665
 20
106.363033
 30
0.0
 10
73.833535
 20
106.357660
 30
0.0
 10
73.958915
 20
106.346945
 30
0.0
 10
74.132077
 20
106.250096
 30
0.0
 10
74.268065
 20
106.106803
 30
0.0
 10
74.374670
 20
105.938588
 30
0.0
 10
74.438673
 20
105.752953
 30
0.0
 10
74.458053
 20
105.568023
 30
0.0
 10
74.440353
 20
105.385315
 30
0.0
 10
74.395047
 20
105.202214
 30
0.0
 10
74.345794
 20
105.079000
 30
0.0
 10
74.319675
 20
105.013658
 30
0.0
 11
73.770665
 21
106.363033
 31
0.0
 11
73.955873
 21
106.333879
 31
0.0
 11
74.120503
 21
106.246419
 31
0.0
 11
74.264554
 21
106.100654
 31
0.0
 11
74.368672
 21
105.933575
 31
0.0
 11
74.431143
 21
105.752777
 31
0.0
 11
74.451966
 21
105.558260
 31
0.0
 11
74.437267
 21
105.392894
 31
0.0
 11
74.393170
 21
105.211360
 31
0.0
 11
74.319675
 21
105.013658
 31
0.0
  0
LINE
  5
1e0
100
AcDbEntity
  8
Layer_1
 62
7
100
AcDbLine
 10
72.394832
 20
106.235150
 30
0.0
 11
72.972507
 21
106.235150
 31
0.0
  0
LINE
  5
1e1
100
AcDbEntity
  8
Layer_1
 62
7
100
AcDbLine
 10
72.972507
 20
106.235150
 30
0.0
 11
72.972507
 21
106.076400
 31
0.0
  0
SPLINE
  5
1e2
100
AcDbEntity
  8
Layer_1
 62
7
100
AcDbSpline
 70
0
 71
3
 72
43
 73
39
 74
37
 40
0.000000
 40
0.000000
 40
0.000000
 40
0.000000
 40
0.158368
 40
0.304091
 40
0.442784
 40
0.591244
 40
0.731919
 40
0.880169
 40
0.984897
 40
1.082789
 40
1.180332
 40
1.276755
 40
1.372299
 40
1.474947
 40
1.581101
 40
1.688641
 40
1.805923
 40
1.881267
 40
1.993619
 40
2.143318
 40
2.320449
 40
2.431777
 40
2.477304
 40
2.610191
 40
2.718572
 40
2.804491
 40
2.877862
 40
2.947320
 40
3.014981
 40
3.177893
 40
3.337608
 40
3.514237
 40
3.678691
 40
3.845065
 40
4.019644
 40
4.157186
 40
4.304206
 40
4.462870
 40
4.462870
 40
4.462870
 40
4.462870
 10
73.708929
 20
105.163589
 30
0.0
 10
73.761564
 20
105.169021
 30
0.0
 10
73.862633
 20
105.179451
 30
0.0
 10
74.003803
 20
105.226864
 30
0.0
 10
74.129330
 20
105.299714
 30
0.0
 10
74.233880
 20
105.399977
 30
0.0
 10
74.300629
 20
105.532904
 30
0.0
 10
74.317718
 20
105.665056
 30
0.0
 10
74.306517
 20
105.782274
 30
0.0
 10
74.271949
 20
105.877490
 30
0.0
 10
74.214981
 20
105.957649
 30
0.0
 10
74.140025
 20
106.020509
 30
0.0
 10
74.047721
 20
106.058197
 30
0.0
 10
73.945903
 20
106.069633
 30
0.0
 10
73.839930
 20
106.055660
 30
0.0
 10
73.738860
 20
106.007844
 30
0.0
 10
73.661041
 20
105.943172
 30
0.0
 10
73.597517
 20
105.863557
 30
0.0
 10
73.533563
 20
105.771020
 30
0.0
 10
73.454634
 20
105.647705
 30
0.0
 10
73.377272
 20
105.523822
 30
0.0
 10
73.317713
 20
105.429776
 30
0.0
 10
73.265867
 20
105.348263
 30
0.0
 10
73.206849
 20
105.272794
 30
0.0
 10
73.132978
 20
105.192237
 30
0.0
 10
73.061343
 20
105.137873
 30
0.0
 10
72.991757
 20
105.105777
 30
0.0
 10
72.924005
 20
105.086126
 30
0.0
 10
72.823952
 20
105.077711
 30
0.0
 10
72.692442
 20
105.098747
 30
0.0
 10
72.545902
 20
105.185092
 30
0.0
 10
72.437873
 20
105.315653
 30
0.0
 10
72.361067
 20
105.467436
 30
0.0
 10
72.315838
 20
105.630834
 30
0.0
 10
72.302549
 20
105.790707
 30
0.0
 10
72.313857
 20
105.943716
 30
0.0
 10
72.343543
 20
106.088969
 30
0.0
 10
72.377307
 20
106.185201
 30
0.0
 10
72.394832
 20
106.235150
 30
0.0
 11
73.708929
 21
105.163589
 31
0.0
 11
73.865719
 21
105.185888
 31
0.0
 11
74.003891
 21
105.232187
 31
0.0
 11
74.123443
 21
105.302496
 31
0.0
 11
74.228787
 21
105.407103
 31
0.0
 11
74.291993
 21
105.532780
 31
0.0
 11
74.313062
 21
105.679525
 31
0.0
 11
74.301793
 21
105.783644
 31
0.0
 11
74.267985
 21
105.875514
 31
0.0
 11
74.211637
 21
105.955135
 31
0.0
 11
74.137163
 21
106.016380
 31
0.0
 11
74.048968
 21
106.053127
 31
0.0
 11
73.947054
 21
106.065376
 31
0.0
 11
73.841956
 21
106.050432
 31
0.0
 11
73.744207
 21
106.005600
 31
0.0
 11
73.653808
 21
105.930881
 31
0.0
 11
73.605792
 21
105.872818
 31
0.0
 11
73.541116
 21
105.780949
 31
0.0
 11
73.459780
 21
105.655274
 31
0.0
 11
73.365462
 21
105.505342
 31
0.0
 11
73.305930
 21
105.411268
 31
0.0
 11
73.281187
 21
105.373051
 31
0.0
 11
73.200343
 21
105.267585
 31
0.0
 11
73.125377
 21
105.189313
 31
0.0
 11
73.056290
 21
105.138234
 31
0.0
 11
72.989900
 21
105.106998
 31
0.0
 11
72.923019
 21
105.088257
 31
0.0
 11
72.855647
 21
105.082010
 31
0.0
 11
72.694938
 21
105.108713
 31
0.0
 11
72.556767
 21
105.188822
 31
0.0
 11
72.441133
 21
105.322339
 31
0.0
 11
72.366415
 21
105.468839
 31
0.0
 11
72.321583
 21
105.629059
 31
0.0
 11
72.306637
 21
105.802997
 31
0.0
 11
72.316439
 21
105.940189
 31
0.0
 11
72.345837
 21
106.084240
 31
0.0
 11
72.394832
 21
106.235150
 31
0.0
  0
LINE
  5
1e3
100
AcDbEntity
  8
Layer_1
 62
7
100
AcDbLine
 10
73.770665
 20
106.363033
 30
0.0
 11
73.770665
 21
106.363033
 31
0.0
  0
SPLINE
  5
1e4
100
AcDbEntity
  8
Layer_1
 62
7
100
AcDbSpline
 70
0
 71
3
 72
31
 73
27
 74
25
 40
0.000000
 40
0.000000
 40
0.000000
 40
0.000000
 40
0.135435
 40
0.263288
 40
0.389279
 40
0.523896
 40
0.648494
 40
0.776863
 40
0.849234
 40
0.916725
 40
0.984362
 40
1.052006
 40
1.119496
 40
1.191865
 40
1.284016
 40
1.382634
 40
1.495898
 40
1.566106
 40
1.669064
 40
1.805044
 40
2.042994
 40
2.198128
 40
2.270523
 40
2.439424
 40
2.585834
 40
2.723619
 40
2.723619
 40
2.723619
 40
2.723619
 10
72.972507
 20
106.076400
 30
0.0
 10
72.927295
 20
106.073762
 30
0.0
 10
72.839403
 20
106.068633
 30
0.0
 10
72.714444
 20
106.028764
 30
0.0
 10
72.601304
 20
105.964267
 30
0.0
 10
72.506071
 20
105.875317
 30
0.0
 10
72.444274
 20
105.758986
 30
0.0
 10
72.428418
 20
105.649691
 30
0.0
 10
72.436991
 20
105.560040
 30
0.0
 10
72.462343
 20
105.494604
 30
0.0
 10
72.504109
 20
105.440448
 30
0.0
 10
72.558281
 20
105.398609
 30
0.0
 10
72.623709
 20
105.373512
 30
0.0
 10
72.701286
 20
105.365009
 30
0.0
 10
72.789451
 20
105.379391
 30
0.0
 10
72.879703
 20
105.428740
 30
0.0
 10
72.949228
 20
105.493176
 30
0.0
 10
73.008483
 20
105.568157
 30
0.0
 10
73.066593
 20
105.653323
 30
0.0
 10
73.151721
 20
105.787564
 30
0.0
 10
73.245546
 20
105.936921
 30
0.0
 10
73.329306
 20
106.067461
 30
0.0
 10
73.404139
 20
106.176597
 30
0.0
 10
73.496937
 20
106.267862
 30
0.0
 10
73.629138
 20
106.348588
 30
0.0
 10
73.724454
 20
106.358317
 30
0.0
 10
73.770665
 20
106.363033
 30
0.0
 11
72.972507
 21
106.076400
 31
0.0
 11
72.837765
 21
106.062707
 31
0.0
 11
72.715763
 21
106.024477
 31
0.0
 11
72.606498
 21
105.961747
 31
0.0
 11
72.509731
 21
105.868164
 31
0.0
 11
72.451669
 21
105.757921
 31
0.0
 11
72.432314
 21
105.631020
 31
0.0
 11
72.440526
 21
105.559116
 31
0.0
 11
72.465150
 21
105.496277
 31
0.0
 11
72.506177
 21
105.442504
 31
0.0
 11
72.559953
 21
105.401468
 31
0.0
 11
72.622791
 21
105.376847
 31
0.0
 11
72.694693
 21
105.368640
 31
0.0
 11
72.785583
 21
105.383830
 31
0.0
 11
72.873043
 21
105.429397
 31
0.0
 11
72.957072
 21
105.505343
 31
0.0
 11
73.001170
 21
105.559974
 31
0.0
 11
73.059967
 21
105.644493
 31
0.0
 11
73.133461
 21
105.758900
 31
0.0
 11
73.260608
 21
105.960032
 31
0.0
 11
73.345127
 21
106.090120
 31
0.0
 11
73.387021
 21
106.149163
 31
0.0
 11
73.507063
 21
106.267978
 31
0.0
 11
73.634944
 21
106.339268
 31
0.0
 11
73.770665
 21
106.363033
 31
0.0
  0
ENDSEC
  0
SECTION
  2
OBJECTS
  0
DICTIONARY
  5
C
330
0
100
AcDbDictionary
  3
ACAD_GROUP
350
D
  3
ACAD_MLINESTYLE
350
17
  0
DICTIONARY
  5
D
330
C
100
AcDbDictionary
  0
DICTIONARY
  5
1A
330
C
100
AcDbDictionary
  0
DICTIONARY
  5
17
330
C
100
AcDbDictionary
  3
STANDARD
350
18
  0
DICTIONARY
  5
19
330
C
100
AcDbDictionary
  0
ENDSEC
  0
EOF
