999
dxfrw 0.6.3
  0
SECTION
  2
HEADER
  9
$ACADVER
  1
AC1021
  9
$DWGCODEPAGE
  3
ANSI_1252
  9
$INSBASE
 10
0
 20
0
 30
0
  9
$EXTMIN
 10
-200.6673513545261
 20
132.9439273327308
 30
0
  9
$EXTMAX
 10
691.7803565398078
 20
1828.567310807853
 30
0
  9
$LIMMIN
 10
0
 20
0
  9
$LIMMAX
 10
420
 20
297
  9
$ORTHOMODE
 70
    0
  9
$REGENMODE
 70
    1
  9
$FILLMODE
 70
    1
  9
$QTEXTMODE
 70
    0
  9
$MIRRTEXT
 70
    0
  9
$LTSCALE
 40
1
  9
$ATTMODE
 70
    0
  9
$TEXTSIZE
 40
2.5
  9
$TRACEWID
 40
15.68
  9
$TEXTSTYLE
  7
STANDARD
  9
$CLAYER
  8
Metal Shop Vent Labels
  9
$CELTYPE
  6
BYLAYER
  9
$CECOLOR
 62
  256
  9
$CELTSCALE
 40
1
  9
$DISPSILH
 70
    0
  9
$DIMSCALE
 40
1
  9
$DIMASZ
 40
2.5
  9
$DIMEXO
 40
0.625
  9
$DIMDLI
 40
3.75
  9
$DIMRND
 40
0
  9
$DIMDLE
 40
0
  9
$DIMEXE
 40
1.25
  9
$DIMTP
 40
0
  9
$DIMTM
 40
0
  9
$DIMTXT
 40
2.5
  9
$DIMCEN
 40
2.5
  9
$DIMTSZ
 40
0
  9
$DIMTOL
 70
    0
  9
$DIMLIM
 70
    0
  9
$DIMTIH
 70
    0
  9
$DIMTOH
 70
    0
  9
$DIMSE1
 70
    0
  9
$DIMSE2
 70
    0
  9
$DIMTAD
 70
    1
  9
$DIMZIN
 70
    8
  9
$DIMBLK
  1

  9
$DIMASO
 70
    1
  9
$DIMSHO
 70
    1
  9
$DIMPOST
  1

  9
$DIMAPOST
  1

  9
$DIMALT
 70
    0
  9
$DIMALTD
 70
    3
  9
$DIMALTF
 40
0.03937
  9
$DIMLFAC
 40
1
  9
$DIMTOFL
 70
    1
  9
$DIMTVP
 40
0
  9
$DIMTIX
 70
    0
  9
$DIMSOXD
 70
    0
  9
$DIMSAH
 70
    0
  9
$DIMBLK1
  1

  9
$DIMBLK2
  1

  9
$DIMSTYLE
  2
Standard
  9
$DIMCLRD
 70
    0
  9
$DIMCLRE
 70
    0
  9
$DIMCLRT
 70
    0
  9
$DIMTFAC
 40
1
  9
$DIMGAP
 40
0.625
  9
$DIMJUST
 70
    0
  9
$DIMSD1
 70
    0
  9
$DIMSD2
 70
    0
  9
$DIMTOLJ
 70
    0
  9
$DIMTZIN
 70
    8
  9
$DIMALTZ
 70
    0
  9
$DIMALTTZ
 70
    0
  9
$DIMUPT
 70
    0
  9
$DIMDEC
 70
    2
  9
$DIMTDEC
 70
    2
  9
$DIMALTU
 70
    2
  9
$DIMALTTD
 70
    3
  9
$DIMTXSTY
  7
STANDARD
  9
$DIMAUNIT
 70
    0
  9
$DIMADEC
 70
    0
  9
$DIMALTRND
 40
0
  9
$DIMAZIN
 70
    0
  9
$DIMDSEP
 70
   44
  9
$DIMATFIT
 70
    3
  9
$DIMFRAC
 70
    0
  9
$DIMLDRBLK
  1
STANDARD
  9
$DIMLUNIT
 70
    2
  9
$DIMLWD
 70
   -2
  9
$DIMLWE
 70
   -2
  9
$DIMTMOVE
 70
    0
  9
$DIMFXL
 40
1
  9
$DIMFXLON
 70
    0
  9
$DIMJOGANG
 40
0.7854
  9
$DIMTFILL
 70
    0
  9
$DIMTFILLCLR
 70
    0
  9
$DIMARCSYM
 70
    0
  9
$DIMLTYPE
  6

  9
$DIMLTEX1
  6

  9
$DIMLTEX2
  6

  9
$LUNITS
 70
    2
  9
$LUPREC
 70
    4
  9
$SKETCHINC
 40
1
  9
$FILLETRAD
 40
0
  9
$AUNITS
 70
    0
  9
$AUPREC
 70
    2
  9
$MENU
  1
.
  9
$ELEVATION
 40
0
  9
$PELEVATION
 40
0
  9
$THICKNESS
 40
0
  9
$LIMCHECK
 70
    0
  9
$CHAMFERA
 40
0
  9
$CHAMFERB
 40
0
  9
$CHAMFERC
 40
0
  9
$CHAMFERD
 40
0
  9
$SKPOLY
 70
    0
  9
$USRTIMER
 70
    1
  9
$ANGBASE
 50
0
  9
$ANGDIR
 70
    0
  9
$PDMODE
 70
   34
  9
$PDSIZE
 40
0
  9
$PLINEWID
 40
0
  9
$SPLFRAME
 70
    0
  9
$SPLINETYPE
 70
    2
  9
$SPLINESEGS
 70
    8
  9
$HANDSEED
  5
20000
  9
$SURFTAB1
 70
    6
  9
$SURFTAB2
 70
    6
  9
$SURFTYPE
 70
    6
  9
$SURFU
 70
    6
  9
$SURFV
 70
    6
  9
$UCSBASE
  2

  9
$UCSNAME
  2

  9
$UCSORG
 10
0
 20
0
 30
0
  9
$UCSXDIR
 10
1
 20
0
 30
0
  9
$UCSYDIR
 10
0
 20
1
 30
0
  9
$UCSORTHOREF
  2

  9
$UCSORTHOVIEW
 70
    0
  9
$UCSORGTOP
 10
0
 20
0
 30
0
  9
$UCSORGBOTTOM
 10
0
 20
0
 30
0
  9
$UCSORGLEFT
 10
0
 20
0
 30
0
  9
$UCSORGRIGHT
 10
0
 20
0
 30
0
  9
$UCSORGFRONT
 10
0
 20
0
 30
0
  9
$UCSORGBACK
 10
0
 20
0
 30
0
  9
$PUCSBASE
  2

  9
$PUCSNAME
  2

  9
$PUCSORG
 10
0
 20
0
 30
0
  9
$PUCSXDIR
 10
1
 20
0
 30
0
  9
$PUCSYDIR
 10
0
 20
1
 30
0
  9
$PUCSORTHOREF
  2

  9
$PUCSORTHOVIEW
 70
    0
  9
$PUCSORGTOP
 10
0
 20
0
 30
0
  9
$PUCSORGBOTTOM
 10
0
 20
0
 30
0
  9
$PUCSORGLEFT
 10
0
 20
0
 30
0
  9
$PUCSORGRIGHT
 10
0
 20
0
 30
0
  9
$PUCSORGFRONT
 10
0
 20
0
 30
0
  9
$PUCSORGBACK
 10
0
 20
0
 30
0
  9
$USERI1
 70
    0
  9
$USERI2
 70
    0
  9
$USERI3
 70
    0
  9
$USERI4
 70
    0
  9
$USERI5
 70
    0
  9
$USERR1
 40
0
  9
$USERR2
 40
0
  9
$USERR3
 40
0
  9
$USERR4
 40
0
  9
$USERR5
 40
0
  9
$WORLDVIEW
 70
    1
  9
$SHADEDGE
 70
    3
  9
$SHADEDIF
 70
   70
  9
$TILEMODE
 70
    1
  9
$MAXACTVP
 70
   64
  9
$PINSBASE
 10
64.0650188938324
 20
-15.19374889640402
 30
0
  9
$PLIMCHECK
 70
    0
  9
$PEXTMIN
 10
0
 20
0
 30
0
  9
$PEXTMAX
 10
0
 20
0
 30
0
  9
$GRIDMODE
 70
    0
  9
$SNAPSTYLE
 70
    0
  9
$PLIMMIN
 10
0
 20
0
  9
$PLIMMAX
 10
210
 20
297
  9
$UNITMODE
 70
    0
  9
$VISRETAIN
 70
    1
  9
$PLINEGEN
 70
    0
  9
$PSLTSCALE
 70
    1
  9
$TREEDEPTH
 70
 3020
  9
$CMLSTYLE
  2
Standard
  9
$CMLJUST
 70
    0
  9
$CMLSCALE
 40
20
  9
$PROXYGRAPHICS
 70
    1
  9
$MEASUREMENT
 70
    1
  9
$CELWEIGHT
370
   -1
  9
$ENDCAPS
280
    0
  9
$JOINSTYLE
280
    0
  9
$LWDISPLAY
290
    0
  9
$INSUNITS
 70
    4
  9
$HYPERLINKBASE
  1

  9
$STYLESHEET
  1

  9
$XEDIT
290
    1
  9
$CEPSNTYPE
380
    0
  9
$PSTYLEMODE
290
    1
  9
$EXTNAMES
290
    1
  9
$PSVPSCALE
 40
0.2083116342047703
  9
$OLESTARTUP
290
    0
  9
$SORTENTS
280
  127
  9
$INDEXCTL
280
    0
  9
$HIDETEXT
280
    1
  9
$XCLIPFRAME
290
    0
  9
$HALOGAP
280
    0
  9
$OBSCOLOR
 70
  257
  9
$OBSLTYPE
280
    0
  9
$INTERSECTIONDISPLAY
280
    0
  9
$INTERSECTIONCOLOR
 70
  257
  9
$DIMASSOC
280
    1
  9
$PROJECTNAME
  1

  9
$CAMERADISPLAY
290
    0
  9
$LENSLENGTH
 40
50
  9
$CAMERAHEIGHT
 40
0
  9
$STEPSPERSEC
 40
2
  9
$STEPSIZE
 40
50
  9
$3DDWFPREC
 40
2
  9
$PSOLWIDTH
 40
5
  9
$PSOLHEIGHT
 40
80
  9
$LOFTANG1
 40
1.570796326794897
  9
$LOFTANG2
 40
1.570796326794897
  9
$LOFTMAG1
 40
0
  9
$LOFTMAG2
 40
0
  9
$LOFTPARAM
 70
    7
  9
$LOFTNORMALS
280
    1
  9
$LATITUDE
 40
1
  9
$LONGITUDE
 40
1
  9
$NORTHDIRECTION
 40
0
  9
$TIMEZONE
 70
-8000
  9
$LIGHTGLYPHDISPLAY
280
    1
  9
$TILEMODELIGHTSYNCH
280
    1
  9
$SOLIDHIST
280
    1
  9
$SHOWHIST
280
    1
  9
$DWFFRAME
280
    2
  9
$DGNFRAME
280
    0
  9
$REALWORLDSCALE
290
    1
  9
$INTERFERECOLOR
 62
    1
  9
$CSHADOW
280
    0
  9
$SHADOWPLANELOCATION
 40
0
  0
ENDSEC
  0
SECTION
  2
CLASSES
  0
ENDSEC
  0
SECTION
  2
TABLES
  0
TABLE
  2
VPORT
  5
8
330
0
100
AcDbSymbolTable
 70
    1
  0
VPORT
  5
31
330
2
100
AcDbSymbolTableRecord
100
AcDbViewportTableRecord
  2
*ACTIVE
 70
    0
 10
0
 20
0
 11
1
 21
1
 12
788.6367271135066
 22
792.1211309151863
 13
0
 23
0
 14
10
 24
10
 15
10
 25
10
 16
0
 26
0
 36
1
 17
0
 27
0
 37
0
 40
1732.910157368707
 41
1.993297587131367
 42
50
 43
0
 44
0
 50
0
 51
0
 71
    0
 72
  100
 73
    1
 74
    3
 75
    0
 76
    0
 77
    0
 78
    0
281
    0
 65
    1
110
0
120
0
130
0
111
1
121
0
131
0
112
0
122
1
132
0
 79
    0
146
0
348
10020
 60
    7
 61
    5
292
1
282
    1
141
0
142
0
 63
  250
421
3358443
  0
ENDTAB
  0
TABLE
  2
LTYPE
  5
5
330
0
100
AcDbSymbolTable
 70
    4
  0
LTYPE
  5
14
330
5
100
AcDbSymbolTableRecord
100
AcDbLinetypeTableRecord
  2
ByBlock
 70
    0
  3

 72
   65
 73
    0
 40
0
  0
LTYPE
  5
15
330
5
100
AcDbSymbolTableRecord
100
AcDbLinetypeTableRecord
  2
ByLayer
 70
    0
  3

 72
   65
 73
    0
 40
0
  0
LTYPE
  5
16
330
5
100
AcDbSymbolTableRecord
100
AcDbLinetypeTableRecord
  2
Continuous
 70
    0
  3
Solid line
 72
   65
 73
    0
 40
0
  0
LTYPE
  5
32
330
5
100
AcDbSymbolTableRecord
100
AcDbLinetypeTableRecord
  2
DOT
 70
    0
  3
Dot . . . . . . . . . . . . . . . . . . . . . .
 72
   65
 73
    2
 40
6.35
 49
0
 74
    0
 49
-6.35
 74
    0
  0
LTYPE
  5
33
330
5
100
AcDbSymbolTableRecord
100
AcDbLinetypeTableRecord
  2
DOTTINY
 70
    0
  3
Dot (.15x) .....................................
 72
   65
 73
    2
 40
0.9525
 49
0
 74
    0
 49
-0.9525
 74
    0
  0
LTYPE
  5
34
330
5
100
AcDbSymbolTableRecord
100
AcDbLinetypeTableRecord
  2
DOT2
 70
    0
  3
Dot (.5x) .....................................
 72
   65
 73
    2
 40
3.175
 49
0
 74
    0
 49
-3.175
 74
    0
  0
LTYPE
  5
35
330
5
100
AcDbSymbolTableRecord
100
AcDbLinetypeTableRecord
  2
DOTX2
 70
    0
  3
Dot (2x) .  .  .  .  .  .  .  .  .  .  .  .  .
 72
   65
 73
    2
 40
12.7
 49
0
 74
    0
 49
-12.7
 74
    0
  0
LTYPE
  5
36
330
5
100
AcDbSymbolTableRecord
100
AcDbLinetypeTableRecord
  2
DASHED
 70
    0
  3
Dashed _ _ _ _ _ _ _ _ _ _ _ _ _ _ _ _ _
 72
   65
 73
    2
 40
19.05
 49
12.7
 74
    0
 49
-6.35
 74
    0
  0
LTYPE
  5
37
330
5
100
AcDbSymbolTableRecord
100
AcDbLinetypeTableRecord
  2
DASHEDTINY
 70
    0
  3
Dashed (.15x) _ _ _ _ _ _ _ _ _ _ _ _ _ _ _ _ _
 72
   65
 73
    2
 40
2.8575
 49
1.905
 74
    0
 49
-0.9525
 74
    0
  0
LTYPE
  5
38
330
5
100
AcDbSymbolTableRecord
100
AcDbLinetypeTableRecord
  2
DASHED2
 70
    0
  3
Dashed (.5x) _ _ _ _ _ _ _ _ _ _ _ _ _ _ _ _ _
 72
   65
 73
    2
 40
9.524999999999999
 49
6.35
 74
    0
 49
-3.175
 74
    0
  0
LTYPE
  5
39
330
5
100
AcDbSymbolTableRecord
100
AcDbLinetypeTableRecord
  2
DASHEDX2
 70
    0
  3
Dashed (2x) ____  ____  ____  ____  ____  ___
 72
   65
 73
    2
 40
38.09999999999999
 49
25.4
 74
    0
 49
-12.7
 74
    0
  0
LTYPE
  5
3A
330
5
100
AcDbSymbolTableRecord
100
AcDbLinetypeTableRecord
  2
DASHDOT
 70
    0
  3
Dash dot __ . __ . __ . __ . __ . __ . __ . __
 72
   65
 73
    4
 40
25.4
 49
12.7
 74
    0
 49
-6.35
 74
    0
 49
0
 74
    0
 49
-6.35
 74
    0
  0
LTYPE
  5
3B
330
5
100
AcDbSymbolTableRecord
100
AcDbLinetypeTableRecord
  2
DASHDOTTINY
 70
    0
  3
Dash dot (.15x) _._._._._._._._._._._._._._._.
 72
   65
 73
    4
 40
3.81
 49
1.905
 74
    0
 49
-0.9525
 74
    0
 49
0
 74
    0
 49
-0.9525
 74
    0
  0
LTYPE
  5
3C
330
5
100
AcDbSymbolTableRecord
100
AcDbLinetypeTableRecord
  2
DASHDOT2
 70
    0
  3
Dash dot (.5x) _._._._._._._._._._._._._._._.
 72
   65
 73
    4
 40
12.7
 49
6.35
 74
    0
 49
-3.175
 74
    0
 49
0
 74
    0
 49
-3.175
 74
    0
  0
LTYPE
  5
3D
330
5
100
AcDbSymbolTableRecord
100
AcDbLinetypeTableRecord
  2
DASHDOTX2
 70
    0
  3
Dash dot (2x) ____  .  ____  .  ____  .  ___
 72
   65
 73
    4
 40
50.8
 49
25.4
 74
    0
 49
-12.7
 74
    0
 49
0
 74
    0
 49
-12.7
 74
    0
  0
LTYPE
  5
3E
330
5
100
AcDbSymbolTableRecord
100
AcDbLinetypeTableRecord
  2
DIVIDE
 70
    0
  3
Divide ____ . . ____ . . ____ . . ____ . . ____
 72
   65
 73
    6
 40
31.75
 49
12.7
 74
    0
 49
-6.35
 74
    0
 49
0
 74
    0
 49
-6.35
 74
    0
 49
0
 74
    0
 49
-6.35
 74
    0
  0
LTYPE
  5
3F
330
5
100
AcDbSymbolTableRecord
100
AcDbLinetypeTableRecord
  2
DIVIDETINY
 70
    0
  3
Divide (.15x) __..__..__..__..__..__..__..__.._
 72
   65
 73
    6
 40
4.7625
 49
1.905
 74
    0
 49
-0.9525
 74
    0
 49
0
 74
    0
 49
-0.9525
 74
    0
 49
0
 74
    0
 49
-0.9525
 74
    0
  0
LTYPE
  5
40
330
5
100
AcDbSymbolTableRecord
100
AcDbLinetypeTableRecord
  2
DIVIDE2
 70
    0
  3
Divide (.5x) __..__..__..__..__..__..__..__.._
 72
   65
 73
    6
 40
15.875
 49
6.35
 74
    0
 49
-3.175
 74
    0
 49
0
 74
    0
 49
-3.175
 74
    0
 49
0
 74
    0
 49
-3.175
 74
    0
  0
LTYPE
  5
41
330
5
100
AcDbSymbolTableRecord
100
AcDbLinetypeTableRecord
  2
DIVIDEX2
 70
    0
  3
Divide (2x) ________  .  .  ________  .  .  _
 72
   65
 73
    6
 40
63.5
 49
25.4
 74
    0
 49
-12.7
 74
    0
 49
0
 74
    0
 49
-12.7
 74
    0
 49
0
 74
    0
 49
-12.7
 74
    0
  0
LTYPE
  5
42
330
5
100
AcDbSymbolTableRecord
100
AcDbLinetypeTableRecord
  2
BORDER
 70
    0
  3
Border __ __ . __ __ . __ __ . __ __ . __ __ .
 72
   65
 73
    6
 40
44.45
 49
12.7
 74
    0
 49
-6.35
 74
    0
 49
12.7
 74
    0
 49
-6.35
 74
    0
 49
0
 74
    0
 49
-6.35
 74
    0
  0
LTYPE
  5
43
330
5
100
AcDbSymbolTableRecord
100
AcDbLinetypeTableRecord
  2
BORDERTINY
 70
    0
  3
Border (.15x) __.__.__.__.__.__.__.__.__.__.__.
 72
   65
 73
    6
 40
6.6675
 49
1.905
 74
    0
 49
-0.9525
 74
    0
 49
1.905
 74
    0
 49
-0.9525
 74
    0
 49
0
 74
    0
 49
-0.9525
 74
    0
  0
LTYPE
  5
44
330
5
100
AcDbSymbolTableRecord
100
AcDbLinetypeTableRecord
  2
BORDER2
 70
    0
  3
Border (.5x) __.__.__.__.__.__.__.__.__.__.__.
 72
   65
 73
    6
 40
22.225
 49
6.35
 74
    0
 49
-3.175
 74
    0
 49
6.35
 74
    0
 49
-3.175
 74
    0
 49
0
 74
    0
 49
-3.175
 74
    0
  0
LTYPE
  5
45
330
5
100
AcDbSymbolTableRecord
100
AcDbLinetypeTableRecord
  2
BORDERX2
 70
    0
  3
Border (2x) ____  ____  .  ____  ____  .  ___
 72
   65
 73
    6
 40
88.89999999999999
 49
25.4
 74
    0
 49
-12.7
 74
    0
 49
25.4
 74
    0
 49
-12.7
 74
    0
 49
0
 74
    0
 49
-12.7
 74
    0
  0
LTYPE
  5
46
330
5
100
AcDbSymbolTableRecord
100
AcDbLinetypeTableRecord
  2
CENTER
 70
    0
  3
Center ____ _ ____ _ ____ _ ____ _ ____ _ ____
 72
   65
 73
    4
 40
50.8
 49
31.75
 74
    0
 49
-6.35
 74
    0
 49
6.35
 74
    0
 49
-6.35
 74
    0
  0
LTYPE
  5
47
330
5
100
AcDbSymbolTableRecord
100
AcDbLinetypeTableRecord
  2
CENTERTINY
 70
    0
  3
Center (.15x) ___ _ ___ _ ___ _ ___ _ ___ _ ___
 72
   65
 73
    4
 40
7.62
 49
4.7625
 74
    0
 49
-0.9525
 74
    0
 49
0.9525
 74
    0
 49
-0.9525
 74
    0
  0
LTYPE
  5
48
330
5
100
AcDbSymbolTableRecord
100
AcDbLinetypeTableRecord
  2
CENTER2
 70
    0
  3
Center (.5x) ___ _ ___ _ ___ _ ___ _ ___ _ ___
 72
   65
 73
    4
 40
28.575
 49
19.05
 74
    0
 49
-3.175
 74
    0
 49
3.175
 74
    0
 49
-3.175
 74
    0
  0
LTYPE
  5
49
330
5
100
AcDbSymbolTableRecord
100
AcDbLinetypeTableRecord
  2
CENTERX2
 70
    0
  3
Center (2x) ________  __  ________  __  _____
 72
   65
 73
    4
 40
101.6
 49
63.5
 74
    0
 49
-12.7
 74
    0
 49
12.7
 74
    0
 49
-12.7
 74
    0
  0
ENDTAB
  0
TABLE
  2
LAYER
  5
2
330
0
100
AcDbSymbolTable
 70
    1
  0
LAYER
  5
10
330
2
100
AcDbSymbolTableRecord
100
AcDbLayerTableRecord
  2
0
 70
    0
 62
    7
  6
CONTINUOUS
370
   -3
390
F
  0
LAYER
  5
4A
330
2
100
AcDbSymbolTableRecord
100
AcDbLayerTableRecord
  2
Fab Lab Fixture Labels
 70
    0
 62
    3
  6
CONTINUOUS
370
    0
390
F
  0
LAYER
  5
4B
330
2
100
AcDbSymbolTableRecord
100
AcDbLayerTableRecord
  2
Fab Lab Fixtures
 70
    0
 62
    3
  6
CONTINUOUS
370
    0
390
F
  0
LAYER
  5
4C
330
2
100
AcDbSymbolTableRecord
100
AcDbLayerTableRecord
  2
Furnace Labels
 70
    0
 62
    6
  6
CONTINUOUS
370
    0
390
F
  0
LAYER
  5
4D
330
2
100
AcDbSymbolTableRecord
100
AcDbLayerTableRecord
  2
Furnaces
 70
    0
 62
    6
  6
CONTINUOUS
370
    0
390
F
  0
LAYER
  5
4E
330
2
100
AcDbSymbolTableRecord
100
AcDbLayerTableRecord
  2
H and Vinyl Structures, Lasers
 70
    0
 62
   96
420
32768
  6
CONTINUOUS
370
    0
390
F
  0
LAYER
  5
4F
330
2
100
AcDbSymbolTableRecord
100
AcDbLayerTableRecord
  2
Labels
 70
    0
 62
    7
  6
CONTINUOUS
370
    0
390
F
  0
LAYER
  5
50
330
2
100
AcDbSymbolTableRecord
100
AcDbLayerTableRecord
  2
Large Laser Vent Fan
 70
    0
 62
   56
420
8421376
  6
CONTINUOUS
370
    0
390
F
  0
LAYER
  5
51
330
2
100
AcDbSymbolTableRecord
100
AcDbLayerTableRecord
  2
Large Laser Vent Fan Label
 70
    0
 62
   56
420
8421376
  6
CONTINUOUS
370
    0
390
F
  0
LAYER
  5
52
330
2
100
AcDbSymbolTableRecord
100
AcDbLayerTableRecord
  2
Metal Shop Lights
 70
    0
 62
    4
  6
CONTINUOUS
370
    0
390
F
  0
LAYER
  5
53
330
2
100
AcDbSymbolTableRecord
100
AcDbLayerTableRecord
  2
Metal Shop Lights Labels
 70
    0
 62
    4
  6
CONTINUOUS
370
    0
390
F
  0
LAYER
  5
54
330
2
100
AcDbSymbolTableRecord
100
AcDbLayerTableRecord
  2
Metal Shop Vent
 70
    0
 62
   96
420
32768
  6
CONTINUOUS
370
    0
390
F
  0
LAYER
  5
55
330
2
100
AcDbSymbolTableRecord
100
AcDbLayerTableRecord
  2
Metal Shop Vent Labels
 70
    0
 62
   96
420
32768
  6
CONTINUOUS
370
    0
390
F
  0
LAYER
  5
56
330
2
100
AcDbSymbolTableRecord
100
AcDbLayerTableRecord
  2
Nonspecific Lighting
 70
    0
 62
    4
  6
CONTINUOUS
370
    0
390
F
  0
LAYER
  5
57
330
2
100
AcDbSymbolTableRecord
100
AcDbLayerTableRecord
  2
Shop Ceiling Fans
 70
    0
 62
    4
  6
CONTINUOUS
370
    0
390
F
  0
LAYER
  5
58
330
2
100
AcDbSymbolTableRecord
100
AcDbLayerTableRecord
  2
Shop Ceiling Fans Labels
 70
    0
 62
    4
  6
CONTINUOUS
370
    0
390
F
  0
LAYER
  5
59
330
2
100
AcDbSymbolTableRecord
100
AcDbLayerTableRecord
  2
Shop Lighting
 70
    0
 62
    4
  6
CONTINUOUS
370
    0
390
F
  0
LAYER
  5
5A
330
2
100
AcDbSymbolTableRecord
100
AcDbLayerTableRecord
  2
Shop Lighting Labels
 70
    0
 62
    4
  6
CONTINUOUS
370
    0
390
F
  0
LAYER
  5
5B
330
2
100
AcDbSymbolTableRecord
100
AcDbLayerTableRecord
  2
Snapple Machine
 70
    0
 62
    2
  6
CONTINUOUS
370
    0
390
F
  0
LAYER
  5
5C
330
2
100
AcDbSymbolTableRecord
100
AcDbLayerTableRecord
  2
Snapple Machine Labels
 70
    0
 62
    2
  6
CONTINUOUS
370
    0
390
F
  0
LAYER
  5
5D
330
2
100
AcDbSymbolTableRecord
100
AcDbLayerTableRecord
  2
Tool Crib Lights
 70
    0
 62
    4
  6
CONTINUOUS
370
    0
390
F
  0
LAYER
  5
5E
330
2
100
AcDbSymbolTableRecord
100
AcDbLayerTableRecord
  2
Tool Crib Lights Labels
 70
    0
 62
    4
  6
CONTINUOUS
370
    0
390
F
  0
LAYER
  5
5F
330
2
100
AcDbSymbolTableRecord
100
AcDbLayerTableRecord
  2
Welding Zone Lighting Labels
 70
    0
 62
    4
  6
CONTINUOUS
370
    0
390
F
  0
LAYER
  5
60
330
2
100
AcDbSymbolTableRecord
100
AcDbLayerTableRecord
  2
Welding Zone Lights
 70
    0
 62
    4
  6
CONTINUOUS
370
    0
390
F
  0
LAYER
  5
61
330
2
100
AcDbSymbolTableRecord
100
AcDbLayerTableRecord
  2
Floorplan
 70
    0
 62
    1
  6
CONTINUOUS
370
   -3
390
F
1001
LibreCad
1070
    1
  0
LAYER
  5
62
330
2
100
AcDbSymbolTableRecord
100
AcDbLayerTableRecord
  2
groupingLabels
 70
    0
 62
    7
  6
DASHED
370
    0
390
F
  0
ENDTAB
  0
TABLE
  2
STYLE
  5
3
330
0
100
AcDbSymbolTable
 70
    3
  0
STYLE
  5
63
330
2
100
AcDbSymbolTableRecord
100
AcDbTextStyleTableRecord
  2
STANDARD
 70
    0
 40
0
 41
1
 50
0
 71
    0
 42
1
  3
STANDARD
  4

  0
ENDTAB
  0
TABLE
  2
VIEW
  5
6
330
0
100
AcDbSymbolTable
 70
    0
  0
ENDTAB
  0
TABLE
  2
UCS
  5
7
330
0
100
AcDbSymbolTable
 70
    0
  0
ENDTAB
  0
TABLE
  2
APPID
  5
9
330
0
100
AcDbSymbolTable
 70
    1
  0
APPID
  5
12
330
9
100
AcDbSymbolTableRecord
100
AcDbRegAppTableRecord
  2
ACAD
 70
    0
  0
APPID
  5
64
330
9
100
AcDbSymbolTableRecord
100
AcDbRegAppTableRecord
  2
LibreCad
 70
    0
  0
ENDTAB
  0
TABLE
  2
DIMSTYLE
  5
A
330
0
100
AcDbSymbolTable
 70
    1
100
AcDbDimStyleTable
 71
    1
  0
DIMSTYLE
105
65
330
A
100
AcDbSymbolTableRecord
100
AcDbDimStyleTableRecord
  2
Standard
 70
    0
 40
1
 41
2.5
 42
0.625
 43
0.38
 44
1.25
 45
0
 46
0
 47
0
 48
0
 49
1
140
2.5
141
0.09
142
0
143
25.4
144
1
145
0
146
1
147
0.625
148
0
 71
    0
 72
    0
 73
    0
 74
    1
 75
    0
 76
    0
 77
    0
 78
    8
 79
    0
170
    0
171
    2
172
    0
173
    0
174
    0
175
    0
176
    0
177
    0
178
    0
179
    0
271
    2
272
    4
273
    2
274
    2
275
    0
276
    0
277
    2
278
   44
279
    0
280
    0
281
    0
282
    0
283
    1
284
    0
285
    0
286
    0
288
    0
289
    3
340
STANDARD
341

371
   -2
372
   -2
  0
ENDTAB
  0
TABLE
  2
BLOCK_RECORD
  5
1
330
0
100
AcDbSymbolTable
 70
    2
  0
BLOCK_RECORD
  5
1F
330
1
100
AcDbSymbolTableRecord
100
AcDbBlockTableRecord
  2
*Model_Space
 70
    0
280
    1
281
    0
  0
BLOCK_RECORD
  5
1E
330
1
100
AcDbSymbolTableRecord
100
AcDbBlockTableRecord
  2
*Paper_Space
 70
    0
280
    1
281
    0
  0
BLOCK_RECORD
  5
66
330
1
100
AcDbSymbolTableRecord
100
AcDbBlockTableRecord
  2
Light
 70
    0
280
    1
281
    0
  0
ENDTAB
  0
ENDSEC
  0
SECTION
  2
BLOCKS
  0
BLOCK
  5
20
330
1F
100
AcDbEntity
  8
0
100
AcDbBlockBegin
  2
*Model_Space
 70
    0
 10
0
 20
0
 30
0
  3
*Model_Space
  1

  0
ENDBLK
  5
21
330
1F
100
AcDbEntity
  8
0
100
AcDbBlockEnd
  0
BLOCK
  5
1C
330
1B
100
AcDbEntity
  8
0
100
AcDbBlockBegin
  2
*Paper_Space
 70
    0
 10
0
 20
0
 30
0
  3
*Paper_Space
  1

  0
ENDBLK
  5
1D
330
1F
100
AcDbEntity
  8
0
100
AcDbBlockEnd
  0
BLOCK
  5
67
330
66
100
AcDbEntity
  8
0
100
AcDbBlockBegin
  2
Light
 70
    0
 10
0
 20
0
  3
Light
  1

  0
LINE
  5
69
100
AcDbEntity
  8
Nonspecific Lighting
  6
ByLayer
 62
  256
370
   -1
100
AcDbLine
 10
-24.00000000000045
 20
3
 11
23.99999999999955
 21
-3
  0
LINE
  5
6A
100
AcDbEntity
  8
Nonspecific Lighting
  6
ByLayer
 62
  256
370
   -1
100
AcDbLine
 10
-24.00000000000045
 20
-3
 11
23.99999999999955
 21
3
  0
ENDBLK
  5
68
330
66
100
AcDbEntity
  8
0
100
AcDbBlockEnd
  0
ENDSEC
  0
SECTION
  2
ENTITIES
  0
LWPOLYLINE
  5
6B
100
AcDbEntity
  8
Floorplan
  6
ByLayer
 62
    1
370
   -1
100
AcDbPolyline
 90
    2
 70
    0
 43
0
 10
174.5185098222162
 20
173.3671365770016
 10
174.5185098222162
 20
160.6524988762467
  0
LWPOLYLINE
  5
6C
100
AcDbEntity
  8
Floorplan
  6
ByLayer
 62
    1
370
   -1
100
AcDbPolyline
 90
   12
 70
    1
 43
0
 10
104.1711700663543
 20
173.3671365770016
 10
104.1711700663543
 20
160.6524988762467
 10
174.5184095253185
 20
160.6524988762467
 10
260.4984239159053
 20
160.6524988762467
 10
260.4984239159053
 20
173.3671365770016
 10
249.7641489585013
 20
173.3671365770016
 10
249.7641489585013
 20
286.6524793360415
 10
184.3149084907523
 20
286.6524793360415
 10
184.3149084907523
 20
281.858287633777
 10
244.8656484827983
 20
281.858287633777
 10
244.8656484827983
 20
173.3671365770016
 10
174.5184095253185
 20
173.3671365770016
  0
LWPOLYLINE
  5
6D
100
AcDbEntity
  8
Floorplan
  6
ByLayer
 62
    1
370
   -1
100
AcDbPolyline
 90
    2
 70
    0
 43
0
 10
36.74196904581367
 20
173.3671365770016
 10
36.74196904581367
 20
160.6524988762468
  0
LWPOLYLINE
  5
6E
100
AcDbEntity
  8
Floorplan
  6
ByLayer
 62
    1
370
   -1
100
AcDbPolyline
 90
    2
 70
    0
 43
0
 10
104.1711700663543
 20
173.3671365770016
 10
80.72225740819563
 20
173.3671365770016
  0
LWPOLYLINE
  5
6F
100
AcDbEntity
  8
Floorplan
  6
ByLayer
 62
    1
370
   -1
100
AcDbPolyline
 90
    5
 70
    0
 43
0
 10
80.72210696284918
 20
173.3671365770016
 10
80.72210696284918
 20
222.2453236337012
 10
75.8236069886308
 20
222.2453236337012
 10
75.8236069886308
 20
173.3671365770016
 10
36.74191889736498
 20
173.3671365770016
  0
LWPOLYLINE
  5
70
100
AcDbEntity
  8
Floorplan
  6
ByLayer
 62
    1
370
   -1
100
AcDbPolyline
 90
    2
 70
    0
 43
0
 10
36.74196904581367
 20
160.6525490246956
 10
104.1710697694568
 20
160.6525490246955
  0
LWPOLYLINE
  5
71
100
AcDbEntity
  8
Floorplan
  6
ByLayer
 62
    1
370
   -1
100
AcDbPolyline
 90
    4
 70
    0
 43
0
 10
36.74196904581367
 20
173.3671365770016
 10
-33.60527041315051
 20
173.3671365770016
 10
-33.6053205615992
 20
160.6524988762468
 10
36.74191889736498
 20
160.6524988762468
  0
LWPOLYLINE
  5
72
100
AcDbEntity
  8
Floorplan
  6
ByLayer
 62
    1
370
   -1
100
AcDbPolyline
 90
   30
 70
    0
 43
0
 10
-33.6053205615992
 20
173.3671365770016
 10
-80.50364736240454
 20
173.3671365770016
 10
-80.50364736240454
 20
179.2034125431903
 10
-86.3399233285932
 20
179.2034125431903
 10
-86.3399233285932
 20
173.3671365770016
 10
-187.9527136537714
 20
173.3671365770016
 10
-187.9527136537714
 20
289.6749263433166
 10
-86.3399233285932
 20
289.6749263433166
 10
-86.3399233285932
 20
275.91770289415
 10
-80.50364736240454
 20
275.91770289415
 10
-80.50364736240454
 20
281.8582876337771
 10
33.82378066352834
 20
281.8582876337771
 10
33.82378066352834
 20
286.6524793360416
 10
-71.74923266089485
 20
286.6524793360416
 10
-71.74923266089485
 20
306.2454777683938
 10
-80.50364736240454
 20
306.2454777683938
 10
-80.50364736240454
 20
414.7366293266534
 10
-73.62528612932286
 20
414.7366293266534
 10
-73.62528612932284
 20
422.5527660502209
 10
-108.851059994782
 20
422.5527660502209
 10
-108.851059994782
 20
414.7366293266534
 10
-85.40164585213536
 20
414.7366293266534
 10
-85.40164585213536
 20
306.2454777683938
 10
-187.9527136537714
 20
306.2454777683938
 10
-187.9527136537714
 20
414.7366293266534
 10
-140.1161098779927
 20
414.7366293266534
 10
-140.1161098779927
 20
422.5527660502209
 10
-190.8703504031201
 20
422.5527660502209
 10
-190.8703504031201
 20
434.2253189855672
 10
-200.6673513545261
 20
434.2253189855672
  0
LWPOLYLINE
  5
73
100
AcDbEntity
  8
Floorplan
  6
ByLayer
 62
    1
370
   -1
100
AcDbPolyline
 90
    3
 70
    0
 43
0
 10
-200.6671507607311
 20
434.2254192824648
 10
-200.6671507607311
 20
160.6525991731444
 10
-33.60511996780418
 20
160.6525991731444
  0
LWPOLYLINE
  5
74
100
AcDbEntity
  8
Floorplan
  6
ByLayer
 62
    1
370
   -1
100
AcDbPolyline
 90
    2
 70
    0
 43
0
 10
68.94539620089535
 20
465.4908698517811
 10
68.94539620089535
 20
473.3070070768331
  0
LWPOLYLINE
  5
75
100
AcDbEntity
  8
Floorplan
  6
ByLayer
 62
    1
370
   -1
100
AcDbPolyline
 90
    6
 70
    0
 43
0
 10
90.51865657821634
 20
473.3072076706281
 10
68.94529590399783
 20
473.3072076706281
 10
60.19088120248802
 20
473.3072076706281
 10
60.19088120248802
 20
465.4910704455761
 10
68.94529590399783
 20
465.4910704455761
 10
90.51865657821634
 20
465.4910704455761
  0
LWPOLYLINE
  5
76
100
AcDbEntity
  8
Floorplan
  6
ByLayer
 62
    1
370
   -1
100
AcDbPolyline
 90
   16
 70
    1
 43
0
 10
309.3768120678844
 20
473.3072076706281
 10
90.51845598442131
 20
473.3072076706281
 10
90.51845598442131
 20
465.4910704455761
 10
115.843422111008
 20
465.4910704455761
 10
115.843422111008
 20
336.5729522534292
 10
65.08918108439599
 20
336.5729522534293
 10
65.08918108439599
 20
331.6744517777262
 10
120.7419220852266
 20
331.6744517777262
 10
120.7419220852267
 20
465.4910704455761
 10
165.764195417604
 20
465.4910704455761
 10
165.764195417604
 20
459.6547939779031
 10
261.4364005016705
 20
459.6547939779031
 10
261.4364005016705
 20
465.4910704455761
 10
301.5606748428325
 20
465.4910704455761
 10
301.5606748428325
 20
400.0418299778272
 10
309.3768120678844
 20
400.0418299778272
  0
LWPOLYLINE
  5
77
100
AcDbEntity
  8
Floorplan
  6
ByLayer
 62
    1
370
   -1
100
AcDbPolyline
 90
   10
 70
    1
 43
0
 10
299.5804128978637
 20
173.3671365770016
 10
299.5804128978637
 20
160.6524988762467
 10
314.2749113559973
 20
160.6524988762467
 10
314.2749113559973
 20
291.5504783272568
 10
334.7018784913689
 20
291.5504783272568
 10
334.7018784913689
 20
305.3072002919357
 10
309.3769123647818
 20
305.3072002919357
 10
309.3769123647818
 20
360.0221653007962
 10
301.5602736552423
 20
360.0221653007962
 10
301.5602736552423
 20
173.3671365770016
  0
LWPOLYLINE
  5
78
100
AcDbEntity
  8
Floorplan
  6
ByLayer
 62
    1
370
   -1
100
AcDbPolyline
 90
   12
 70
    1
 43
0
 10
105.1091466521197
 20
1138.740648356824
 10
105.1091466521197
 20
1132.800063115713
 10
106.1512314175282
 20
1132.800063115713
 10
106.1512314175282
 20
1135.301467740283
 10
110.0076471278227
 20
1135.301467740283
 10
110.0076471278227
 20
1132.800063115713
 10
111.0497318932312
 20
1132.800063115713
 10
111.0497318932312
 20
1138.740648356824
 10
110.0076471278227
 20
1138.740648356824
 10
110.0076471278227
 20
1136.239243732254
 10
106.1512314175282
 20
1136.239243732254
 10
106.1512314175282
 20
1138.740648356824
  0
LWPOLYLINE
  5
79
100
AcDbEntity
  8
Floorplan
  6
ByLayer
 62
    1
370
   -1
100
AcDbPolyline
 90
   12
 70
    1
 43
0
 10
110.0073963855787
 20
527.5007291091941
 10
110.0073963855787
 20
525.1036332580619
 10
111.0494811509875
 20
525.1036332580619
 10
111.0494811509875
 20
530.9399097257349
 10
110.0073963855787
 20
530.9399097257349
 10
110.0073963855787
 20
528.5428138746026
 10
106.151482159772
 20
528.5428138746026
 10
106.151482159772
 20
530.9399097257349
 10
105.1088959098758
 20
530.9399097257349
 10
105.1088959098758
 20
525.1036332580619
 10
106.151482159772
 20
525.1036332580619
 10
106.151482159772
 20
527.5007291091941
  0
LWPOLYLINE
  5
7A
100
AcDbEntity
  8
Floorplan
  6
ByLayer
 62
    1
370
   -1
100
AcDbPolyline
 90
    4
 70
    1
 43
0
 10
373.8881260983168
 20
305.3072504403845
 10
373.8881260983168
 20
291.5505284757057
 10
444.2353650557965
 20
291.5505284757057
 10
444.2353650557965
 20
305.3072504403845
  0
LWPOLYLINE
  5
7B
100
AcDbEntity
  8
Floorplan
  6
ByLayer
 62
    1
370
   -1
100
AcDbPolyline
 90
   12
 70
    1
 43
0
 10
106.1513818628745
 20
696.1258870502339
 10
105.1092970974659
 20
696.1258870502339
 10
105.1092970974659
 20
690.1853018091224
 10
106.1513818628745
 20
690.1853018091224
 10
106.1513818628745
 20
692.6867064336931
 10
110.0072960886812
 20
692.6867064336931
 10
110.0072960886812
 20
690.1853018091224
 10
111.0493808540898
 20
690.1853018091224
 10
111.0493808540898
 20
696.1258870502339
 10
110.0072960886812
 20
696.1258870502339
 10
110.0072960886812
 20
693.6244824256632
 10
106.1513818628745
 20
693.6244824256632
  0
LWPOLYLINE
  5
7C
100
AcDbEntity
  8
Floorplan
  6
ByLayer
 62
    1
370
   -1
100
AcDbPolyline
 90
   20
 70
    1
 43
0
 10
19.12908161159968
 20
465.4908698517811
 10
19.12908161159968
 20
336.5727516596343
 10
4.538390943901325
 20
336.5727516596343
 10
4.538390943901325
 20
331.6747526684189
 10
32.88580407776315
 20
331.6747526684189
 10
32.88580407776315
 20
336.5727516596343
 10
25.06966685271132
 20
336.5727516596343
 10
25.06966685271133
 20
465.4908698517811
 10
26.94521883665165
 20
465.4908698517811
 10
26.94521883665165
 20
473.3070070768331
 10
-35.585381912773
 20
473.3070070768331
 10
-35.585381912773
 20
422.5527660502209
 10
-42.35943387093184
 20
422.5527660502209
 10
-42.35943387093184
 20
414.7366293266534
 10
-35.585381912773
 20
414.7366293266534
 10
-35.58538191277302
 20
331.6747526684189
 10
-22.87074421201805
 20
331.6747526684189
 10
-22.87074421201805
 20
336.5727516596343
 10
-27.76924468772105
 20
336.5727516596343
 10
-27.76924468772104
 20
465.4908698517811
  0
LWPOLYLINE
  5
7D
100
AcDbEntity
  8
Floorplan
  6
ByLayer
 62
    1
370
   -1
100
AcDbPolyline
 90
   12
 70
    1
 43
0
 10
105.1091466521197
 20
991.167708410401
 10
105.1091466521197
 20
985.3314319427277
 10
106.1512314175282
 20
985.3314319427277
 10
106.1512314175282
 20
987.7285277938603
 10
110.0076471278227
 20
987.7285277938603
 10
110.0076471278227
 20
985.3314319427277
 10
111.0497318932312
 20
985.3314319427277
 10
111.0497318932312
 20
991.167708410401
 10
110.0076471278227
 20
991.167708410401
 10
110.0076471278227
 20
988.7706125592687
 10
106.1512314175282
 20
988.7706125592687
 10
106.1512314175282
 20
991.167708410401
  0
LWPOLYLINE
  5
7E
100
AcDbEntity
  8
Floorplan
  6
ByLayer
 62
    1
370
   -1
100
AcDbPolyline
 90
    6
 70
    1
 43
0
 10
111.987608182099
 20
1265.782713080543
 10
111.987608182099
 20
1308.720816882103
 10
104.1709694725594
 20
1308.720816882103
 10
104.1709694725594
 20
1254.005851873243
 10
296.6622751655116
 20
1254.005851873243
 10
296.6622751655116
 20
1265.782713080543
  0
LWPOLYLINE
  5
7F
100
AcDbEntity
  8
Floorplan
  6
ByLayer
 62
    1
370
   -1
100
AcDbPolyline
 90
    8
 70
    1
 43
0
 10
75.82380758242583
 20
281.8583879306746
 10
75.82380758242583
 20
254.4487512902673
 10
80.72230755664434
 20
254.4487512902673
 10
80.72230755664434
 20
281.8583879306745
 10
152.0073230075787
 20
281.8583879306745
 10
152.0073230075787
 20
286.652579632939
 10
65.08953212353734
 20
286.6525796329391
 10
65.08953212353734
 20
281.8583879306746
  0
LWPOLYLINE
  5
80
100
AcDbEntity
  8
Floorplan
  6
ByLayer
 62
    1
370
   -1
100
AcDbPolyline
 90
    4
 70
    1
 43
0
 10
32.88570378086565
 20
336.5728018080831
 10
32.88570378086565
 20
331.6743013323801
 10
65.08903063904967
 20
331.6743013323801
 10
65.08903063904967
 20
336.5728018080831
  0
LWPOLYLINE
  5
81
100
AcDbEntity
  8
Floorplan
  6
ByLayer
 62
    1
370
   -1
100
AcDbPolyline
 90
    4
 70
    1
 43
0
 10
26.94562002424182
 20
473.3070572252818
 10
26.94562002424182
 20
465.4909200002299
 10
60.19103164783448
 20
465.4909200002299
 10
60.19103164783448
 20
473.3070572252818
  0
LWPOLYLINE
  5
82
100
AcDbEntity
  8
Floorplan
  6
ByLayer
 62
    1
370
   -1
100
AcDbPolyline
 90
    4
 70
    1
 43
0
 10
-73.62508553552769
 20
422.5528161986696
 10
-73.6250855355277
 20
414.7366794751023
 10
-42.35953416782935
 20
414.7366794751023
 10
-42.35953416782935
 20
422.5528161986696
  0
LWPOLYLINE
  5
83
100
AcDbEntity
  8
Floorplan
  6
ByLayer
 62
    1
370
   -1
100
AcDbPolyline
 90
    4
 70
    1
 43
0
 10
184.3149586392012
 20
281.8583377822258
 10
184.3149586392012
 20
286.6525294844903
 10
152.0073230075787
 20
286.6525294844903
 10
152.0073230075787
 20
281.8583377822258
  0
LWPOLYLINE
  5
84
100
AcDbEntity
  8
Floorplan
  6
ByLayer
 62
    1
370
   -1
100
AcDbPolyline
 90
    4
 70
    1
 43
0
 10
-22.87084450891568
 20
336.5728018080831
 10
-22.87084450891568
 20
331.6743013323801
 10
4.538792131491496
 20
331.6743013323801
 10
4.538792131491496
 20
336.5728018080831
  0
LWPOLYLINE
  5
85
100
AcDbEntity
  8
Floorplan
  6
ByLayer
 62
    1
370
   -1
100
AcDbPolyline
 90
    4
 70
    1
 43
0
 10
-140.1164107686853
 20
422.5528161986696
 10
-140.1164107686853
 20
414.7366794751023
 10
-108.850859400987
 20
414.7366794751023
 10
-108.850859400987
 20
422.5528161986696
  0
LWPOLYLINE
  5
86
100
AcDbEntity
  8
Floorplan
  6
ByLayer
 62
    1
370
   -1
100
AcDbPolyline
 90
    4
 70
    1
 43
0
 10
301.5605243974862
 20
400.0416795324809
 10
301.5605243974862
 20
360.0217139647573
 10
309.3766616225381
 20
360.0217139647573
 10
309.3766616225381
 20
400.0416795324809
  0
LWPOLYLINE
  5
87
100
AcDbEntity
  8
Floorplan
  6
ByLayer
 62
    1
370
   -1
100
AcDbPolyline
 90
    4
 70
    1
 43
0
 10
562.4187068060518
 20
291.5505284757057
 10
562.4187068060518
 20
305.3072504403845
 10
444.2353650557965
 20
305.3072504403845
 10
444.2353650557965
 20
291.5505284757057
  0
LWPOLYLINE
  5
88
100
AcDbEntity
  8
Floorplan
  6
ByLayer
 62
    1
370
   -1
100
AcDbPolyline
 90
    4
 70
    1
 43
0
 10
65.08953212353734
 20
281.8583377822258
 10
65.08953212353734
 20
286.6525294844903
 10
33.82398125732336
 20
286.6525294844903
 10
33.82398125732336
 20
281.8583377822258
  0
LWPOLYLINE
  5
89
100
AcDbEntity
  8
Floorplan
  6
ByLayer
 62
    1
370
   -1
100
AcDbPolyline
 90
    2
 70
    0
 43
0
 10
593.6842581737501
 20
1321.435253487578
 10
585.8681209486983
 20
1321.435253487578
  0
LWPOLYLINE
  5
8A
100
AcDbEntity
  8
Floorplan
  6
ByLayer
 62
    1
370
   -1
100
AcDbPolyline
 90
    2
 70
    0
 43
0
 10
585.8678702064544
 20
695.083651839479
 10
593.6840074315063
 20
695.083651839479
  0
LWPOLYLINE
  5
8B
100
AcDbEntity
  8
Floorplan
  6
ByLayer
 62
    1
370
   -1
100
AcDbPolyline
 90
    4
 70
    0
 43
0
 10
593.6842581737501
 20
695.083651839479
 10
593.6842581737501
 20
812.329217597764
 10
585.8681209486983
 20
812.3292175977641
 10
585.8681209486983
 20
695.083651839479
  0
LWPOLYLINE
  5
8C
100
AcDbEntity
  8
Floorplan
  6
ByLayer
 62
    1
370
   -1
100
AcDbPolyline
 90
    2
 70
    0
 43
0
 10
585.8678702064545
 20
859.2273939532231
 10
585.8678702064545
 20
812.3290671524178
  0
LWPOLYLINE
  5
8D
100
AcDbEntity
  8
Floorplan
  6
ByLayer
 62
    1
370
   -1
100
AcDbPolyline
 90
    2
 70
    0
 43
0
 10
593.6842581737501
 20
812.3291674493153
 10
593.6842581737501
 20
859.2274942501207
  0
LWPOLYLINE
  5
8E
100
AcDbEntity
  8
Floorplan
  6
ByLayer
 62
    1
370
   -1
100
AcDbPolyline
 90
    2
 70
    0
 43
0
 10
585.8678702064545
 20
1187.514777382329
 10
593.6840074315063
 20
1187.514777382329
  0
LWPOLYLINE
  5
8F
100
AcDbEntity
  8
Floorplan
  6
ByLayer
 62
    1
370
   -1
100
AcDbPolyline
 90
    5
 70
    0
 43
0
 10
585.8678702064545
 20
1265.782713080543
 10
412.9695634473388
 20
1265.782713080543
 10
412.9695634473388
 20
1254.005851873243
 10
585.8678702064545
 20
1254.005851873243
 10
585.8678702064545
 20
1187.514526640085
  0
LWPOLYLINE
  5
90
100
AcDbEntity
  8
Floorplan
  6
ByLayer
 62
    1
370
   -1
100
AcDbPolyline
 90
    2
 70
    0
 43
0
 10
593.6842581737501
 20
1187.514777382329
 10
593.6842581737501
 20
1321.43520333913
  0
LWPOLYLINE
  5
91
100
AcDbEntity
  8
Floorplan
  6
ByLayer
 62
    1
370
   -1
100
AcDbPolyline
 90
    2
 70
    0
 43
0
 10
585.8678702064545
 20
1321.435253487578
 10
585.8678702064545
 20
1265.782512486748
  0
LWPOLYLINE
  5
92
100
AcDbEntity
  8
Floorplan
  6
ByLayer
 62
    1
370
   -1
100
AcDbPolyline
 90
    2
 70
    0
 43
0
 10
585.8678702064545
 20
1187.514777382329
 10
585.8678702064545
 20
1140.616450581524
  0
LWPOLYLINE
  5
93
100
AcDbEntity
  8
Floorplan
  6
ByLayer
 62
    1
370
   -1
100
AcDbPolyline
 90
    3
 70
    0
 43
0
 10
585.8678702064545
 20
1140.616550878421
 10
593.6840074315063
 20
1140.616550878421
 10
593.6840074315063
 20
1187.514877679227
  0
LWPOLYLINE
  5
94
100
AcDbEntity
  8
Floorplan
  6
ByLayer
 62
    1
370
   -1
100
AcDbPolyline
 90
    2
 70
    0
 43
0
 10
593.6842581737501
 20
976.4728092661619
 10
585.8681209486983
 20
976.472809266162
  0
LWPOLYLINE
  5
95
100
AcDbEntity
  8
Floorplan
  6
ByLayer
 62
    1
370
   -1
100
AcDbPolyline
 90
    6
 70
    1
 43
0
 10
593.6842581737501
 20
1023.371035268585
 10
585.8681209486983
 20
1023.371035268585
 10
585.8681209486983
 20
976.4727089692644
 10
585.8681209486983
 20
859.2271432109792
 10
593.6842581737501
 20
859.2271432109791
 10
593.6842581737501
 20
976.4727089692643
  0
LWPOLYLINE
  5
96
100
AcDbEntity
  8
Floorplan
  6
ByLayer
 62
    1
370
   -1
100
AcDbPolyline
 90
    2
 70
    0
 43
0
 10
585.8678702064545
 20
1140.616550878421
 10
585.8678702064545
 20
1023.370985120136
  0
LWPOLYLINE
  5
97
100
AcDbEntity
  8
Floorplan
  6
ByLayer
 62
    1
370
   -1
100
AcDbPolyline
 90
    2
 70
    0
 43
0
 10
593.6842581737501
 20
1023.371035268585
 10
593.6842581737501
 20
1140.61660102687
  0
LWPOLYLINE
  5
98
100
AcDbEntity
  8
Floorplan
  6
ByLayer
 62
    1
370
   -1
100
AcDbPolyline
 90
    2
 70
    0
 43
0
 10
585.8678702064544
 20
695.083651839479
 10
585.8678702064544
 20
648.1853250386736
  0
LWPOLYLINE
  5
99
100
AcDbEntity
  8
Floorplan
  6
ByLayer
 62
    1
370
   -1
100
AcDbPolyline
 90
    3
 70
    0
 43
0
 10
585.8678702064544
 20
648.1854253355713
 10
593.6840074315063
 20
648.1854253355713
 10
593.6840074315063
 20
695.0837521363766
  0
LWPOLYLINE
  5
9A
100
AcDbEntity
  8
Floorplan
  6
ByLayer
 62
    1
370
   -1
100
AcDbPolyline
 90
    2
 70
    0
 43
0
 10
593.6842581737501
 20
484.041683221827
 10
585.8681209486983
 20
484.0416832218271
  0
LWPOLYLINE
  5
9B
100
AcDbEntity
  8
Floorplan
  6
ByLayer
 62
    1
370
   -1
100
AcDbPolyline
 90
    8
 70
    1
 43
0
 10
593.6842581737501
 20
530.9399097257349
 10
585.8681209486983
 20
530.9399097257349
 10
585.8681209486983
 20
484.0415829249296
 10
585.8681209486983
 20
305.3075011826284
 10
562.4187068060518
 20
305.3075011826284
 10
562.4187068060518
 20
291.5507792179495
 10
593.6842581737501
 20
291.5507792179495
 10
593.6842581737501
 20
484.0415829249296
  0
LWPOLYLINE
  5
9C
100
AcDbEntity
  8
Floorplan
  6
ByLayer
 62
    1
370
   -1
100
AcDbPolyline
 90
    2
 70
    0
 43
0
 10
585.8678702064544
 20
648.1854253355713
 10
585.8678702064544
 20
530.9398595772863
  0
LWPOLYLINE
  5
9D
100
AcDbEntity
  8
Floorplan
  6
ByLayer
 62
    1
370
   -1
100
AcDbPolyline
 90
    2
 70
    0
 43
0
 10
593.6842581737501
 20
530.9399097257349
 10
593.6842581737501
 20
648.18547548402
  0
LWPOLYLINE
  5
9E
100
AcDbEntity
  8
Floorplan
  6
ByLayer
 62
    1
370
   -1
100
AcDbPolyline
 90
    2
 70
    0
 43
0
 10
585.8678702064545
 20
1368.333379694589
 10
585.8678702064545
 20
1321.435052893783
  0
LWPOLYLINE
  5
9F
100
AcDbEntity
  8
Floorplan
  6
ByLayer
 62
    1
370
   -1
100
AcDbPolyline
 90
    2
 70
    0
 43
0
 10
593.6842581737501
 20
1321.435253487578
 10
593.6842581737502
 20
1368.333580288384
  0
LWPOLYLINE
  5
A0
100
AcDbEntity
  8
Floorplan
  6
ByLayer
 62
    1
370
   -1
100
AcDbPolyline
 90
    2
 70
    0
 43
0
 10
473.5205541816286
 20
1438.680769598899
 10
473.5205541816286
 20
1430.864632373847
  0
LWPOLYLINE
  5
A1
100
AcDbEntity
  8
Floorplan
  6
ByLayer
 62
    1
370
   -1
100
AcDbPolyline
 90
    8
 70
    1
 43
0
 10
426.6223276777208
 20
1438.680769598899
 10
426.6223276777208
 20
1430.864632373847
 10
473.5206544785261
 20
1430.864632373847
 10
585.8677197611082
 20
1430.864632373847
 10
585.8677197611082
 20
1368.333530139935
 10
593.6843584706478
 20
1368.333530139935
 10
593.6843584706478
 20
1438.680769598899
 10
473.5206544785261
 20
1438.680769598899
  0
LWPOLYLINE
  5
A2
100
AcDbEntity
  8
Floorplan
  6
ByLayer
 62
    1
370
   -1
100
AcDbPolyline
 90
    2
 70
    0
 43
0
 10
237.9873880480986
 20
1430.864431780052
 10
237.9873880480986
 20
1438.680569005104
  0
LWPOLYLINE
  5
A3
100
AcDbEntity
  8
Floorplan
  6
ByLayer
 62
    1
370
   -1
100
AcDbPolyline
 90
    2
 70
    0
 43
0
 10
-80.50354706550696
 20
1438.680769598899
 10
-127.4018733648277
 20
1438.680769598899
  0
LWPOLYLINE
  5
A4
100
AcDbEntity
  8
Floorplan
  6
ByLayer
 62
    1
370
   -1
100
AcDbPolyline
 90
    2
 70
    0
 43
0
 10
-127.4017229194816
 20
1430.864431780052
 10
-80.50339662016076
 20
1430.864431780052
  0
LWPOLYLINE
  5
A5
100
AcDbEntity
  8
Floorplan
  6
ByLayer
 62
    1
370
   -1
100
AcDbPolyline
 90
    2
 70
    0
 43
0
 10
1.620403155411203
 20
1430.864431780052
 10
1.620403155411203
 20
1438.680569005104
  0
LWPOLYLINE
  5
A6
100
AcDbEntity
  8
Floorplan
  6
ByLayer
 62
    1
370
   -1
100
AcDbPolyline
 90
    8
 70
    0
 43
0
 10
48.51857951087022
 20
1430.864431780052
 10
48.51857951087022
 20
1438.680569005104
 10
1.620252710064873
 20
1438.680569005104
 10
-80.50334647171194
 20
1438.680569005104
 10
-80.50334647171194
 20
1430.864431780052
 10
1.620252710064873
 20
1430.864431780052
 10
48.51857951087022
 20
1430.864431780052
 10
104.1713205117009
 20
1430.864431780052
  0
LWPOLYLINE
  5
A7
100
AcDbEntity
  8
Floorplan
  6
ByLayer
 62
    1
370
   -1
100
AcDbPolyline
 90
    5
 70
    0
 43
0
 10
104.1711700663544
 20
1430.864431780052
 10
104.1711700663544
 20
1405.435156880027
 10
111.9878087758941
 20
1405.435156880027
 10
111.9878087758941
 20
1430.864431780052
 10
237.9872877512011
 20
1430.864431780052
  0
LWPOLYLINE
  5
A8
100
AcDbEntity
  8
Floorplan
  6
ByLayer
 62
    1
370
   -1
100
AcDbPolyline
 90
    2
 70
    0
 43
0
 10
237.9873880480986
 20
1438.680769598899
 10
48.5185293624214
 20
1438.680769598899
  0
LWPOLYLINE
  5
A9
100
AcDbEntity
  8
Floorplan
  6
ByLayer
 62
    1
370
   -1
100
AcDbPolyline
 90
    2
 70
    0
 43
0
 10
237.9873880480986
 20
1430.864431780052
 10
284.8857143474196
 20
1430.864431780052
  0
LWPOLYLINE
  5
AA
100
AcDbEntity
  8
Floorplan
  6
ByLayer
 62
    1
370
   -1
100
AcDbPolyline
 90
    3
 70
    0
 43
0
 10
284.8856140505221
 20
1430.864431780052
 10
284.8856140505221
 20
1438.680569005104
 10
237.9872877512011
 20
1438.680569005104
  0
LWPOLYLINE
  5
AB
100
AcDbEntity
  8
Floorplan
  6
ByLayer
 62
    1
370
   -1
100
AcDbPolyline
 90
    2
 70
    0
 43
0
 10
426.6223276777208
 20
1438.680769598899
 10
284.8857644958684
 20
1438.680769598899
  0
LWPOLYLINE
  5
AC
100
AcDbEntity
  8
Floorplan
  6
ByLayer
 62
    1
370
   -1
100
AcDbPolyline
 90
    2
 70
    0
 43
0
 10
284.8856140505221
 20
1430.864431780052
 10
426.6221772323744
 20
1430.864431780052
  0
LWPOLYLINE
  5
AD
100
AcDbEntity
  8
Floorplan
  6
ByLayer
 62
    1
370
   -1
100
AcDbPolyline
 90
   14
 70
    1
 43
0
 10
-190.870601145364
 20
434.2254192824648
 10
-200.6671006122824
 20
434.2254192824648
 10
-200.6671006122824
 20
473.3071073737306
 10
-190.870601145364
 20
473.3071073737306
 10
-190.870601145364
 20
492.9001058060827
 10
-152.8309978195067
 20
492.9001058060827
 10
-152.8309978195067
 20
528.0215708981033
 10
-190.870601145364
 20
528.0215708981033
 10
-190.870601145364
 20
1430.864632373847
 10
-127.4017229194816
 20
1430.864632373847
 10
-127.4017229194816
 20
1438.680769598899
 10
-200.6671006122823
 20
1438.680769598899
 10
-200.6671006122824
 20
473.3071073737306
 10
-190.870601145364
 20
473.3071073737306
  0
LWPOLYLINE
  5
AE
100
AcDbEntity
  8
Floorplan
  6
ByLayer
 62
    1
370
   -1
100
AcDbPolyline
 90
   12
 70
    1
 43
0
 10
106.1513818628745
 20
832.8601424674326
 10
105.1092970974659
 20
832.8601424674326
 10
105.1092970974659
 20
827.0238659997594
 10
106.1513818628745
 20
827.0238659997594
 10
106.1513818628745
 20
829.4209618508918
 10
110.0072960886812
 20
829.4209618508918
 10
110.0072960886812
 20
827.0238659997594
 10
111.0493808540898
 20
827.0238659997594
 10
111.0493808540898
 20
832.8601424674326
 10
110.0072960886812
 20
832.8601424674326
 10
110.0072960886812
 20
830.4630466163004
 10
106.1513818628745
 20
830.4630466163004
  0
LWPOLYLINE
  5
AF
100
AcDbEntity
  8
Floorplan
  6
ByLayer
 62
    1
370
   -1
100
AcDbPolyline
 90
    2
 70
    0
 43
0
 10
38.72218034084937
 20
874.8600690894325
 10
38.72218034084937
 20
905.1873424791885
  0
LWPOLYLINE
  5
B0
100
AcDbEntity
  8
Floorplan
  6
ByLayer
 62
    1
370
   -1
100
AcDbPolyline
 90
    4
 70
    0
 43
0
 10
38.72218034084937
 20
905.1875932214325
 10
6.414544709226877
 20
905.1875932214325
 10
6.414544709226875
 20
874.8603198316764
 10
38.72218034084937
 20
874.8603198316764
  0
LWPOLYLINE
  5
B1
100
AcDbEntity
  8
Floorplan
  6
ByLayer
 62
    1
370
   -1
100
AcDbPolyline
 90
    3
 70
    0
 43
0
 10
48.51857951087018
 20
874.8600690894325
 10
48.51857951087018
 20
905.1873424791885
 10
38.72208004395186
 20
905.1873424791885
  0
LWPOLYLINE
  5
B2
100
AcDbEntity
  8
Floorplan
  6
ByLayer
 62
    1
370
   -1
100
AcDbPolyline
 90
    3
 70
    0
 43
0
 10
58.21092064969636
 20
874.8600690894325
 10
58.21092064969636
 20
905.1873424791885
 10
48.51872995621652
 20
905.1873424791885
  0
LWPOLYLINE
  5
B3
100
AcDbEntity
  8
Floorplan
  6
ByLayer
 62
    1
370
   -1
100
AcDbPolyline
 90
    3
 70
    0
 43
0
 10
68.00746976357888
 20
874.8600690894325
 10
68.00746976357888
 20
905.1873424791885
 10
58.21097079814518
 20
905.1873424791885
  0
LWPOLYLINE
  5
B4
100
AcDbEntity
  8
Floorplan
  6
ByLayer
 62
    1
370
   -1
100
AcDbPolyline
 90
    3
 70
    0
 43
0
 10
77.80401937894602
 20
874.8600690894325
 10
77.80401937894602
 20
905.1873424791885
 10
68.0075199120277
 20
905.1873424791885
  0
LWPOLYLINE
  5
B5
100
AcDbEntity
  8
Floorplan
  6
ByLayer
 62
    1
370
   -1
100
AcDbPolyline
 90
    3
 70
    0
 43
0
 10
87.60046819593103
 20
874.8600690894325
 10
87.60046819593103
 20
905.1873424791885
 10
77.8039692304972
 20
905.1873424791885
  0
LWPOLYLINE
  5
B6
100
AcDbEntity
  8
Floorplan
  6
ByLayer
 62
    1
370
   -1
100
AcDbPolyline
 90
    3
 70
    0
 43
0
 10
97.29275918630837
 20
874.8600690894325
 10
97.29275918630837
 20
905.1873424791885
 10
87.60056849282854
 20
905.1873424791885
  0
LWPOLYLINE
  5
B7
100
AcDbEntity
  8
Floorplan
  6
ByLayer
 62
    1
370
   -1
100
AcDbPolyline
 90
    5
 70
    0
 43
0
 10
6.414444412329364
 20
874.8600690894325
 10
105.1090965036709
 20
874.8600690894325
 10
107.0894587455374
 20
874.8600690894325
 10
107.0894587455374
 20
905.1873424791885
 10
97.29295978010353
 20
905.1873424791885
  0
SPLINE
  5
B8
100
AcDbEntity
  8
Floorplan
  6
ByLayer
 62
    1
370
   -1
100
AcDbSpline
210
0
220
0
230
0
 70
    8
 71
    3
 72
    8
 73
    4
 74
    0
 42
1e-007
 43
1e-007
 40
0
 40
0
 40
0
 40
0
 40
1
 40
1
 40
1
 40
1
 10
-160.204374390382
 20
510.461038945888
 30
0
 10
-160.204374390382
 20
503.2231133351364
 30
0
 10
-166.0717423948072
 20
497.3557453307113
 30
0
 10
-173.3096680055588
 20
497.3557453307113
 30
0
  0
SPLINE
  5
B9
100
AcDbEntity
  8
Floorplan
  6
ByLayer
 62
    1
370
   -1
100
AcDbSpline
210
0
220
0
230
0
 70
    8
 71
    3
 72
    8
 73
    4
 74
    0
 42
1e-007
 43
1e-007
 40
0
 40
0
 40
0
 40
0
 40
1
 40
1
 40
1
 40
1
 10
-173.3096680055588
 20
497.3557453307113
 30
0
 10
-180.5475936163102
 20
497.3557453307113
 30
0
 10
-186.4154631052231
 20
503.2231133351364
 30
0
 10
-186.4154631052231
 20
510.461038945888
 30
0
  0
SPLINE
  5
BA
100
AcDbEntity
  8
Floorplan
  6
ByLayer
 62
    1
370
   -1
100
AcDbSpline
210
0
220
0
230
0
 70
    8
 71
    3
 72
    8
 73
    4
 74
    0
 42
1e-007
 43
1e-007
 40
0
 40
0
 40
0
 40
0
 40
1
 40
1
 40
1
 40
1
 10
-186.4154631052231
 20
510.461038945888
 30
0
 10
-186.4154631052231
 20
517.6989645566396
 30
0
 10
-180.5475936163102
 20
523.5663325610647
 30
0
 10
-173.3096680055588
 20
523.5663325610647
 30
0
  0
SPLINE
  5
BB
100
AcDbEntity
  8
Floorplan
  6
ByLayer
 62
    1
370
   -1
100
AcDbSpline
210
0
220
0
230
0
 70
    8
 71
    3
 72
    8
 73
    4
 74
    0
 42
1e-007
 43
1e-007
 40
0
 40
0
 40
0
 40
0
 40
1
 40
1
 40
1
 40
1
 10
-173.3096680055588
 20
523.5663325610647
 30
0
 10
-166.0717423948072
 20
523.5663325610647
 30
0
 10
-160.204374390382
 20
517.6989645566396
 30
0
 10
-160.204374390382
 20
510.461038945888
 30
0
  0
LWPOLYLINE
  5
BC
100
AcDbEntity
  8
Floorplan
  6
ByLayer
 62
    1
370
   -1
100
AcDbPolyline
 90
    4
 70
    0
 43
0
 10
6.414444412329364
 20
874.8600690894325
 10
6.414444412329352
 20
664.860435979433
 10
105.1090965036709
 20
664.860435979433
 10
105.1090965036709
 20
874.8600690894325
  0
LWPOLYLINE
  5
BD
100
AcDbEntity
  8
Floorplan
  6
ByLayer
 62
    1
370
   -1
100
AcDbPolyline
 90
    1
 70
    1
 43
0
 10
-160.204374390382
 20
510.461038945888
  0
LWPOLYLINE
  5
BE
100
AcDbEntity
  8
Floorplan
  6
ByLayer
 62
    1
370
   -1
100
AcDbPolyline
 90
    4
 70
    1
 43
0
 10
364.1849528945565
 20
265.616258696582
 10
362.4107007771286
 20
263.8420065791539
 10
334.7016778975737
 20
291.5505284757057
 10
336.4764314994894
 20
293.3247805931337
  0
LWPOLYLINE
  5
BF
100
AcDbEntity
  8
Floorplan
  6
ByLayer
 62
    1
370
   -1
100
AcDbPolyline
 90
    4
 70
    1
 43
0
 10
289.9816492659239
 20
134.7181794501589
 10
288.2073971484958
 20
132.9439273327308
 10
260.4983737674565
 20
160.652448727798
 10
262.2731273693723
 20
162.426700845226
  0
LWPOLYLINE
  5
C0
100
AcDbEntity
  8
Nonspecific Lighting
  6
ByLayer
 62
  256
370
   -1
100
AcDbPolyline
 90
    4
 70
    1
 43
0
 10
71.70676372005217
 20
407.3697280685839
 10
71.70676372005217
 20
455.3697280685839
 10
65.70676372005217
 20
455.3697280685839
 10
65.70676372005217
 20
407.3697280685839
  0
LWPOLYLINE
  5
C1
100
AcDbEntity
  8
Nonspecific Lighting
  6
ByLayer
 62
  256
370
   -1
100
AcDbPolyline
 90
    4
 70
    1
 43
0
 10
-159.1932875489902
 20
246.4638044058747
 10
-111.1932875489902
 20
246.4638044058747
 10
-111.1932875489902
 20
252.4638044058747
 10
-159.1932875489902
 20
252.4638044058747
  0
LWPOLYLINE
  5
C2
100
AcDbEntity
  8
Nonspecific Lighting
  6
ByLayer
 62
  256
370
   -1
100
AcDbPolyline
 90
    4
 70
    1
 43
0
 10
-4.686673207287122
 20
244.854360506482
 10
43.31332679271288
 20
244.854360506482
 10
43.31332679271288
 20
250.854360506482
 10
-4.686673207287122
 20
250.854360506482
  0
LWPOLYLINE
  5
C3
100
AcDbEntity
  8
Nonspecific Lighting
  6
ByLayer
 62
  256
370
   -1
100
AcDbPolyline
 90
    4
 70
    1
 43
0
 10
-79.52581452904953
 20
220.3103410407427
 10
-31.52581452904952
 20
220.3103410407427
 10
-31.52581452904952
 20
226.3103410407427
 10
-79.52581452904953
 20
226.3103410407427
  0
LWPOLYLINE
  5
C4
100
AcDbEntity
  8
Nonspecific Lighting
  6
ByLayer
 62
  256
370
   -1
100
AcDbPolyline
 90
    4
 70
    1
 43
0
 10
102.3784753044349
 20
253.4065359158155
 10
102.3784753044349
 20
205.4065359158154
 10
108.3784753044349
 20
205.4065359158154
 10
108.3784753044349
 20
253.4065359158155
  0
LWPOLYLINE
  5
C5
100
AcDbEntity
  8
Nonspecific Lighting
  6
ByLayer
 62
  256
370
   -1
100
AcDbPolyline
 90
    4
 70
    1
 43
0
 10
161.9571884863097
 20
254.0016273320071
 10
161.9571884863097
 20
206.0016273320071
 10
167.9571884863097
 20
206.0016273320071
 10
167.9571884863097
 20
254.0016273320071
  0
LWPOLYLINE
  5
C6
100
AcDbEntity
  8
Nonspecific Lighting
  6
ByLayer
 62
  256
370
   -1
100
AcDbPolyline
 90
    4
 70
    1
 43
0
 10
216.6521729328629
 20
254.8737728066275
 10
216.6521729328629
 20
206.8737728066274
 10
222.6521729328629
 20
206.8737728066274
 10
222.6521729328629
 20
254.8737728066275
  0
LWPOLYLINE
  5
C7
100
AcDbEntity
  8
Nonspecific Lighting
  6
ByLayer
 62
  256
370
   -1
100
AcDbPolyline
 90
    4
 70
    1
 43
0
 10
65.99777311624204
 20
400.7510022500008
 10
65.99777311624204
 20
352.7510022500008
 10
71.99777311624204
 20
352.7510022500008
 10
71.99777311624204
 20
400.7510022500008
  0
LWPOLYLINE
  5
C8
100
AcDbEntity
  8
Nonspecific Lighting
  6
ByLayer
 62
  256
370
   -1
100
AcDbPolyline
 90
    4
 70
    1
 43
0
 10
267.7494784337748
 20
431.4331228630379
 10
267.7494784337748
 20
383.4331228630379
 10
273.7494784337748
 20
383.4331228630379
 10
273.7494784337748
 20
431.4331228630379
  0
LWPOLYLINE
  5
C9
100
AcDbEntity
  8
Nonspecific Lighting
  6
ByLayer
 62
  256
370
   -1
100
AcDbPolyline
 90
    4
 70
    1
 43
0
 10
203.3440645511006
 20
431.6717283811277
 10
203.3440645511006
 20
383.6717283811277
 10
209.3440645511006
 20
383.6717283811277
 10
209.3440645511006
 20
431.6717283811277
  0
LWPOLYLINE
  5
CA
100
AcDbEntity
  8
Nonspecific Lighting
  6
ByLayer
 62
  256
370
   -1
100
AcDbPolyline
 90
    4
 70
    1
 43
0
 10
143.9099133327552
 20
431.1049616829661
 10
143.9099133327552
 20
383.1049616829661
 10
149.9099133327552
 20
383.1049616829661
 10
149.9099133327552
 20
431.1049616829661
  0
LWPOLYLINE
  5
CB
100
AcDbEntity
  8
Nonspecific Lighting
  6
ByLayer
 62
  256
370
   -1
100
AcDbPolyline
 90
    4
 70
    1
 43
0
 10
143.6100270990165
 20
362.7295690914643
 10
143.6100270990165
 20
314.7295690914644
 10
149.6100270990165
 20
314.7295690914644
 10
149.6100270990165
 20
362.7295690914643
  0
LWPOLYLINE
  5
CC
100
AcDbEntity
  8
Nonspecific Lighting
  6
ByLayer
 62
  256
370
   -1
100
AcDbPolyline
 90
    4
 70
    1
 43
0
 10
267.0944824916392
 20
363.876211167074
 10
267.0944824916392
 20
315.876211167074
 10
273.0944824916392
 20
315.876211167074
 10
273.0944824916392
 20
363.876211167074
  0
LWPOLYLINE
  5
CD
100
AcDbEntity
  8
Nonspecific Lighting
  6
ByLayer
 62
  256
370
   -1
100
AcDbPolyline
 90
    4
 70
    1
 43
0
 10
203.1148276951369
 20
362.8358915768869
 10
203.1148276951369
 20
314.8358915768869
 10
209.1148276951369
 20
314.8358915768869
 10
209.1148276951369
 20
362.8358915768869
  0
LWPOLYLINE
  5
CE
100
AcDbEntity
  8
Nonspecific Lighting
  6
ByLayer
 62
  256
370
   -1
100
AcDbPolyline
 90
    4
 70
    1
 43
0
 10
-96.95842169727327
 20
386.2660071554661
 10
-96.95842169727327
 20
338.2660071554661
 10
-90.95842169727327
 20
338.2660071554661
 10
-90.95842169727327
 20
386.2660071554661
  0
CIRCLE
  5
CF
100
AcDbEntity
  8
Nonspecific Lighting
  6
ByLayer
 62
  256
370
   -1
100
AcDbCircle
 10
-4.161278360748127
 20
393.240805090698
 40
6.50100334074163
  0
CIRCLE
  5
D0
100
AcDbEntity
  8
Nonspecific Lighting
  6
ByLayer
 62
  256
370
   -1
100
AcDbCircle
 10
-4.387255887638342
 20
411.4714534069259
 40
6.50100334074163
  0
ARC
  5
D1
100
AcDbEntity
  8
Nonspecific Lighting
  6
ByLayer
 62
  256
370
   -1
100
AcDbCircle
 10
-5.259398841245861
 20
408.3401393413049
 40
3.250501670370809
100
AcDbArc
 50
74.43625771558598
 51
254.4362577155857
  0
ARC
  5
D2
100
AcDbEntity
  8
Nonspecific Lighting
  6
ByLayer
 62
  256
370
   -1
100
AcDbCircle
 10
-7.51856995325937
 20
412.3435963605335
 40
3.250501670370809
100
AcDbArc
 50
344.436257715586
 51
164.4362577155857
  0
ARC
  5
D3
100
AcDbEntity
  8
Nonspecific Lighting
  6
ByLayer
 62
  256
370
   -1
100
AcDbCircle
 10
-1.255941822017292
 20
410.5993104533184
 40
3.250501670370809
100
AcDbArc
 50
164.436257715586
 51
344.4362577155857
  0
ARC
  5
D4
100
AcDbEntity
  8
Nonspecific Lighting
  6
ByLayer
 62
  256
370
   -1
100
AcDbCircle
 10
-3.515112934030796
 20
414.602767472547
 40
3.250501670370809
100
AcDbArc
 50
254.436257715586
 51
74.43625771558571
  0
CIRCLE
  5
D5
100
AcDbEntity
  8
Nonspecific Lighting
  6
ByLayer
 62
  256
370
   -1
100
AcDbCircle
 10
-4.642786894610655
 20
454.6331431581703
 40
6.50100334074163
  0
CIRCLE
  5
D6
100
AcDbEntity
  8
Nonspecific Lighting
  6
ByLayer
 62
  256
370
   -1
100
AcDbCircle
 10
-106.0249411356656
 20
362.981807736513
 40
6.50100334074163
  0
ARC
  5
D7
100
AcDbEntity
  8
Nonspecific Lighting
  6
ByLayer
 62
  256
370
   -1
100
AcDbCircle
 10
-106.8970840892731
 20
359.8504936708919
 40
3.250501670370809
100
AcDbArc
 50
74.43625771558598
 51
254.4362577155857
  0
ARC
  5
D8
100
AcDbEntity
  8
Nonspecific Lighting
  6
ByLayer
 62
  256
370
   -1
100
AcDbCircle
 10
-109.1562552012866
 20
363.8539506901205
 40
3.250501670370809
100
AcDbArc
 50
344.436257715586
 51
164.4362577155857
  0
ARC
  5
D9
100
AcDbEntity
  8
Nonspecific Lighting
  6
ByLayer
 62
  256
370
   -1
100
AcDbCircle
 10
-102.8936270700445
 20
362.1096647829054
 40
3.250501670370809
100
AcDbArc
 50
164.436257715586
 51
344.4362577155857
  0
ARC
  5
DA
100
AcDbEntity
  8
Nonspecific Lighting
  6
ByLayer
 62
  256
370
   -1
100
AcDbCircle
 10
-105.152798182058
 20
366.113121802134
 40
3.250501670370809
100
AcDbArc
 50
254.436257715586
 51
74.43625771558571
  0
LWPOLYLINE
  5
DB
100
AcDbEntity
  8
Nonspecific Lighting
  6
ByLayer
 62
  256
370
   -1
100
AcDbPolyline
 90
    4
 70
    1
 43
0
 10
-133.3605183686157
 20
427.9567037908699
 10
-85.36051836861574
 20
427.9567037908699
 10
-85.36051836861574
 20
433.9567037908699
 10
-133.3605183686157
 20
433.9567037908699
  0
LINE
  5
DC
100
AcDbEntity
  8
H and Vinyl Structures, Lasers
  6
ByLayer
 62
  256
370
   -1
100
AcDbLine
 10
284.6622751655116
 20
1152.005851873243
 11
188.6622751655116
 21
1152.005851873243
  0
LINE
  5
DD
100
AcDbEntity
  8
H and Vinyl Structures, Lasers
  6
ByLayer
 62
  256
370
   -1
100
AcDbLine
 10
188.6622751655116
 20
1008.005851873243
 11
284.6622751655116
 21
1008.005851873243
  0
LINE
  5
DE
100
AcDbEntity
  8
H and Vinyl Structures, Lasers
  6
ByLayer
 62
  256
370
   -1
100
AcDbLine
 10
188.6622751655116
 20
1008.005851873243
 11
188.6622751655116
 21
1012.005851873243
  0
LINE
  5
DF
100
AcDbEntity
  8
H and Vinyl Structures, Lasers
  6
ByLayer
 62
  256
370
   -1
100
AcDbLine
 10
188.6622751655116
 20
1012.005851873243
 11
234.6622751655116
 21
1012.005851873243
  0
LINE
  5
E0
100
AcDbEntity
  8
H and Vinyl Structures, Lasers
  6
ByLayer
 62
  256
370
   -1
100
AcDbLine
 10
234.6622751655116
 20
1012.005851873243
 11
234.6622751655116
 21
1148.005851873243
  0
LINE
  5
E1
100
AcDbEntity
  8
H and Vinyl Structures, Lasers
  6
ByLayer
 62
  256
370
   -1
100
AcDbLine
 10
234.6622751655116
 20
1148.005851873243
 11
188.6622751655116
 21
1148.005851873243
  0
LINE
  5
E2
100
AcDbEntity
  8
H and Vinyl Structures, Lasers
  6
ByLayer
 62
  256
370
   -1
100
AcDbLine
 10
188.6622751655116
 20
1148.005851873243
 11
188.6622751655116
 21
1152.005851873243
  0
LINE
  5
E3
100
AcDbEntity
  8
H and Vinyl Structures, Lasers
  6
ByLayer
 62
  256
370
   -1
100
AcDbLine
 10
284.6622751655116
 20
1152.005851873243
 11
284.6622751655116
 21
1148.005851873243
  0
LINE
  5
E4
100
AcDbEntity
  8
H and Vinyl Structures, Lasers
  6
ByLayer
 62
  256
370
   -1
100
AcDbLine
 10
284.6622751655116
 20
1148.005851873243
 11
238.6622751655116
 21
1148.005851873243
  0
LINE
  5
E5
100
AcDbEntity
  8
H and Vinyl Structures, Lasers
  6
ByLayer
 62
  256
370
   -1
100
AcDbLine
 10
238.6622751655116
 20
1148.005851873243
 11
238.6622751655116
 21
1012.005851873243
  0
LINE
  5
E6
100
AcDbEntity
  8
H and Vinyl Structures, Lasers
  6
ByLayer
 62
  256
370
   -1
100
AcDbLine
 10
238.6622751655116
 20
1012.005851873243
 11
284.6622751655116
 21
1012.005851873243
  0
LINE
  5
E7
100
AcDbEntity
  8
H and Vinyl Structures, Lasers
  6
ByLayer
 62
  256
370
   -1
100
AcDbLine
 10
284.6622751655116
 20
1012.005851873243
 11
284.6622751655116
 21
1008.005851873243
  0
LWPOLYLINE
  5
E8
100
AcDbEntity
  8
groupingLabels
  6
ByLayer
 62
  256
370
   -1
100
AcDbPolyline
 90
    4
 70
    1
 43
0
 10
176.1719877633193
 20
1235.744856474437
 10
284.3737735169926
 20
1235.744856474437
 10
284.3737735169926
 20
1181.961581364
 10
176.1719877633193
 20
1181.961581364
  0
LINE
  5
E9
100
AcDbEntity
  8
H and Vinyl Structures, Lasers
  6
ByLayer
 62
  256
370
   -1
100
AcDbLine
 10
-93.58555558767064
 20
768.8600690894325
 11
-93.58555558767064
 21
729.8600690894325
  0
LINE
  5
EA
100
AcDbEntity
  8
H and Vinyl Structures, Lasers
  6
ByLayer
 62
  256
370
   -1
100
AcDbLine
 10
-93.58555558767064
 20
729.8600690894325
 11
-189.7220938931632
 21
729.8600690894325
  0
LINE
  5
EB
100
AcDbEntity
  8
H and Vinyl Structures, Lasers
  6
ByLayer
 62
  256
370
   -1
100
AcDbLine
 10
-189.7220938931632
 20
729.8600690894325
 11
-189.7220938931632
 21
768.8600690894325
  0
LINE
  5
EC
100
AcDbEntity
  8
H and Vinyl Structures, Lasers
  6
ByLayer
 62
  256
370
   -1
100
AcDbLine
 10
-189.7220938931632
 20
768.8600690894325
 11
-93.58555558767064
 21
768.8600690894325
  0
LWPOLYLINE
  5
ED
100
AcDbEntity
  8
H and Vinyl Structures, Lasers
  6
ByLayer
 62
  256
370
   -1
100
AcDbPolyline
 90
    4
 70
    1
 43
0
 10
-171.7220938931632
 20
978.8600690894325
 10
-99.72209389316319
 20
978.8600690894325
 10
-99.72209389316319
 20
930.8600690894325
 10
-171.7220938931632
 20
930.8600690894325
  0
LWPOLYLINE
  5
EE
100
AcDbEntity
  8
H and Vinyl Structures, Lasers
  6
ByLayer
 62
  256
370
   -1
100
AcDbPolyline
 90
    4
 70
    1
 43
0
 10
-171.7220938931632
 20
834.8600690894325
 10
-99.72209389316319
 20
834.8600690894325
 10
-99.72209389316319
 20
882.8600690894325
 10
-171.7220938931632
 20
882.8600690894325
  0
LWPOLYLINE
  5
EF
100
AcDbEntity
  8
Nonspecific Lighting
  6
ByLayer
 62
  256
370
   -1
100
AcDbPolyline
 90
    4
 70
    1
 43
0
 10
266.4973041755342
 20
216.1754668507685
 10
285.8518569927518
 20
216.1754668507685
 10
285.8518569927518
 20
196.820914033551
 10
266.4973041755342
 20
196.820914033551
  0
LWPOLYLINE
  5
F0
100
AcDbEntity
  8
Nonspecific Lighting
  6
ByLayer
 62
  256
370
   -1
100
AcDbPolyline
 90
    4
 70
    1
 43
0
 10
73.36317074873648
 20
305.032873993899
 10
25.36317074873647
 20
305.032873993899
 10
25.36317074873647
 20
317.032873993899
 10
73.36317074873648
 20
317.032873993899
  0
LWPOLYLINE
  5
F1
100
AcDbEntity
  8
Nonspecific Lighting
  6
ByLayer
 62
  256
370
   -1
100
AcDbPolyline
 90
    4
 70
    1
 43
0
 10
-52.05705107055326
 20
381.0482979375116
 10
-52.05705107055326
 20
333.0482979375116
 10
-64.05705107055327
 20
333.0482979375116
 10
-64.05705107055326
 20
381.0482979375116
  0
LWPOLYLINE
  5
F2
100
AcDbEntity
  8
Welding Zone Lights
  6
ByLayer
 62
  256
370
   -1
100
AcDbPolyline
 90
    4
 70
    1
 43
0
 10
568.024175493998
 20
583.4003197522037
 10
568.024175493998
 20
631.4003197522037
 10
562.024175493998
 20
631.4003197522037
 10
562.024175493998
 20
583.4003197522037
  0
LWPOLYLINE
  5
F3
100
AcDbEntity
  8
Welding Zone Lights
  6
ByLayer
 62
  256
370
   -1
100
AcDbPolyline
 90
    4
 70
    1
 43
0
 10
513.923894537294
 20
630.4853714934444
 10
513.923894537294
 20
582.4853714934443
 10
501.9238945372941
 20
582.4853714934443
 10
501.9238945372941
 20
630.4853714934444
  0
CIRCLE
  5
F4
100
AcDbEntity
  8
Shop Ceiling Fans
  6
ByLayer
 62
  256
370
   -1
100
AcDbCircle
 10
383.1360127278507
 20
603.4936869856238
 40
19.50301002222489
  0
ARC
  5
F5
100
AcDbEntity
  8
Shop Ceiling Fans
  6
ByLayer
 62
  256
370
   -1
100
AcDbCircle
 10
380.5195838670281
 20
594.0997447887606
 40
9.751505011112426
100
AcDbArc
 50
74.43625771558598
 51
254.4362577155857
  0
ARC
  5
F6
100
AcDbEntity
  8
Shop Ceiling Fans
  6
ByLayer
 62
  256
370
   -1
100
AcDbCircle
 10
373.7420705309876
 20
606.1101158464463
 40
9.751505011112426
100
AcDbArc
 50
344.436257715586
 51
164.4362577155857
  0
ARC
  5
F7
100
AcDbEntity
  8
Shop Ceiling Fans
  6
ByLayer
 62
  256
370
   -1
100
AcDbCircle
 10
392.5299549247138
 20
600.8772581248012
 40
9.751505011112426
100
AcDbArc
 50
164.436257715586
 51
344.4362577155857
  0
ARC
  5
F8
100
AcDbEntity
  8
Shop Ceiling Fans
  6
ByLayer
 62
  256
370
   -1
100
AcDbCircle
 10
385.7524415886734
 20
612.8876291824869
 40
9.751505011112426
100
AcDbArc
 50
254.436257715586
 51
74.43625771558571
  0
CIRCLE
  5
F9
100
AcDbEntity
  8
Shop Ceiling Fans
  6
ByLayer
 62
  256
370
   -1
100
AcDbCircle
 10
357.3727054180591
 20
1094.987712459122
 40
19.50301002222489
  0
ARC
  5
FA
100
AcDbEntity
  8
Shop Ceiling Fans
  6
ByLayer
 62
  256
370
   -1
100
AcDbCircle
 10
354.7562765572366
 20
1085.593770262259
 40
9.751505011112426
100
AcDbArc
 50
74.43625771558598
 51
254.4362577155857
  0
ARC
  5
FB
100
AcDbEntity
  8
Shop Ceiling Fans
  6
ByLayer
 62
  256
370
   -1
100
AcDbCircle
 10
347.978763221196
 20
1097.604141319945
 40
9.751505011112426
100
AcDbArc
 50
344.436257715586
 51
164.4362577155857
  0
ARC
  5
FC
100
AcDbEntity
  8
Shop Ceiling Fans
  6
ByLayer
 62
  256
370
   -1
100
AcDbCircle
 10
366.7666476149222
 20
1092.371283598299
 40
9.751505011112426
100
AcDbArc
 50
164.436257715586
 51
344.4362577155857
  0
ARC
  5
FD
100
AcDbEntity
  8
Shop Ceiling Fans
  6
ByLayer
 62
  256
370
   -1
100
AcDbCircle
 10
359.9891342788819
 20
1104.381654655985
 40
9.751505011112426
100
AcDbArc
 50
254.436257715586
 51
74.43625771558571
  0
CIRCLE
  5
FE
100
AcDbEntity
  8
Shop Ceiling Fans
  6
ByLayer
 62
  256
370
   -1
100
AcDbCircle
 10
328.3871265222549
 20
1380.066708097831
 40
19.50301002222489
  0
ARC
  5
FF
100
AcDbEntity
  8
Shop Ceiling Fans
  6
ByLayer
 62
  256
370
   -1
100
AcDbCircle
 10
325.7706976614323
 20
1370.672765900968
 40
9.751505011112426
100
AcDbArc
 50
74.43625771558598
 51
254.4362577155857
  0
ARC
  5
100
100
AcDbEntity
  8
Shop Ceiling Fans
  6
ByLayer
 62
  256
370
   -1
100
AcDbCircle
 10
318.9931843253918
 20
1382.683136958654
 40
9.751505011112426
100
AcDbArc
 50
344.436257715586
 51
164.4362577155857
  0
ARC
  5
101
100
AcDbEntity
  8
Shop Ceiling Fans
  6
ByLayer
 62
  256
370
   -1
100
AcDbCircle
 10
337.781068719118
 20
1377.450279237009
 40
9.751505011112426
100
AcDbArc
 50
164.436257715586
 51
344.4362577155857
  0
ARC
  5
102
100
AcDbEntity
  8
Shop Ceiling Fans
  6
ByLayer
 62
  256
370
   -1
100
AcDbCircle
 10
331.0035553830776
 20
1389.460650294694
 40
9.751505011112426
100
AcDbArc
 50
254.436257715586
 51
74.43625771558571
  0
CIRCLE
  5
103
100
AcDbEntity
  8
Shop Ceiling Fans
  6
ByLayer
 62
  256
370
   -1
100
AcDbCircle
 10
-86.60151909708509
 20
778.347894879679
 40
19.50301002222489
  0
ARC
  5
104
100
AcDbEntity
  8
Shop Ceiling Fans
  6
ByLayer
 62
  256
370
   -1
100
AcDbCircle
 10
-89.21794795790765
 20
768.9539526828157
 40
9.751505011112426
100
AcDbArc
 50
74.43625771558598
 51
254.4362577155857
  0
ARC
  5
105
100
AcDbEntity
  8
Shop Ceiling Fans
  6
ByLayer
 62
  256
370
   -1
100
AcDbCircle
 10
-95.99546129394821
 20
780.9643237405014
 40
9.751505011112426
100
AcDbArc
 50
344.436257715586
 51
164.4362577155857
  0
ARC
  5
106
100
AcDbEntity
  8
Shop Ceiling Fans
  6
ByLayer
 62
  256
370
   -1
100
AcDbCircle
 10
-77.20757690022197
 20
775.7314660188563
 40
9.751505011112426
100
AcDbArc
 50
164.436257715586
 51
344.4362577155857
  0
ARC
  5
107
100
AcDbEntity
  8
Shop Ceiling Fans
  6
ByLayer
 62
  256
370
   -1
100
AcDbCircle
 10
-83.98509023626235
 20
787.741837076542
 40
9.751505011112426
100
AcDbArc
 50
254.436257715586
 51
74.43625771558571
  0
LWPOLYLINE
  5
108
100
AcDbEntity
  8
Metal Shop Lights
  6
ByLayer
 62
  256
370
   -1
100
AcDbPolyline
 90
    4
 70
    1
 43
0
 10
522.8480701565752
 20
1412.829181071292
 10
570.8480701565752
 20
1412.829181071292
 10
570.8480701565752
 20
1418.829181071292
 10
522.8480701565752
 20
1418.829181071292
  0
LWPOLYLINE
  5
109
100
AcDbEntity
  8
Metal Shop Lights
  6
ByLayer
 62
  256
370
   -1
100
AcDbPolyline
 90
    4
 70
    1
 43
0
 10
484.5655928490859
 20
1280.863568238971
 10
532.5655928490859
 20
1280.863568238971
 10
532.5655928490859
 20
1286.863568238971
 10
484.5655928490859
 20
1286.863568238971
  0
LWPOLYLINE
  5
10A
100
AcDbEntity
  8
Metal Shop Lights
  6
ByLayer
 62
  256
370
   -1
100
AcDbPolyline
 90
    4
 70
    1
 43
0
 10
183.2856088356739
 20
1410.339263848041
 10
231.2856088356739
 20
1410.339263848041
 10
231.2856088356739
 20
1416.339263848041
 10
183.2856088356739
 20
1416.339263848041
  0
LWPOLYLINE
  5
10B
100
AcDbEntity
  8
Metal Shop Lights
  6
ByLayer
 62
  256
370
   -1
100
AcDbPolyline
 90
    4
 70
    1
 43
0
 10
183.5968484885803
 20
1310.742574917987
 10
231.5968484885803
 20
1310.742574917987
 10
231.5968484885803
 20
1316.742574917987
 10
183.5968484885803
 20
1316.742574917987
  0
LWPOLYLINE
  5
10C
100
AcDbEntity
  8
Metal Shop Lights
  6
ByLayer
 62
  256
370
   -1
100
AcDbPolyline
 90
    4
 70
    1
 43
0
 10
133.1253832614633
 20
1283.566727053794
 10
181.1253832614633
 20
1283.566727053794
 10
181.1253832614633
 20
1289.566727053794
 10
133.1253832614633
 20
1289.566727053794
  0
LWPOLYLINE
  5
10D
100
AcDbEntity
  8
Metal Shop Lights
  6
ByLayer
 62
  256
370
   -1
100
AcDbPolyline
 90
    4
 70
    1
 43
0
 10
378.5947158275067
 20
1411.584222459667
 10
426.5947158275067
 20
1411.584222459667
 10
426.5947158275067
 20
1417.584222459667
 10
378.5947158275067
 20
1417.584222459667
  0
LWPOLYLINE
  5
10E
100
AcDbEntity
  8
Metal Shop Lights
  6
ByLayer
 62
  256
370
   -1
100
AcDbPolyline
 90
    4
 70
    1
 43
0
 10
276.0020339985929
 20
1410.907801079059
 10
324.0020339985929
 20
1410.907801079059
 10
324.0020339985929
 20
1416.907801079059
 10
276.0020339985929
 20
1416.907801079059
  0
LWPOLYLINE
  5
10F
100
AcDbEntity
  8
Metal Shop Lights
  6
ByLayer
 62
  256
370
   -1
100
AcDbPolyline
 90
    4
 70
    1
 43
0
 10
275.8670800052036
 20
1422.60530867104
 10
323.8670800052036
 20
1422.60530867104
 10
323.8670800052036
 20
1410.60530867104
 10
275.8670800052036
 20
1410.60530867104
  0
LWPOLYLINE
  5
110
100
AcDbEntity
  8
Tool Crib Lights
  6
ByLayer
 62
  256
370
   -1
100
AcDbPolyline
 90
    4
 70
    1
 43
0
 10
282.4972242360285
 20
1185.298874167373
 10
282.4972242360286
 20
1233.298874167373
 10
276.4972242360286
 20
1233.298874167373
 10
276.4972242360285
 20
1185.298874167373
  0
LWPOLYLINE
  5
111
100
AcDbEntity
  8
Tool Crib Lights
  6
ByLayer
 62
  256
370
   -1
100
AcDbPolyline
 90
    4
 70
    1
 43
0
 10
234.5920675872987
 20
1185.298874167373
 10
234.5920675872987
 20
1233.298874167373
 10
228.5920675872987
 20
1233.298874167373
 10
228.5920675872987
 20
1185.298874167373
  0
LWPOLYLINE
  5
112
100
AcDbEntity
  8
Tool Crib Lights
  6
ByLayer
 62
  256
370
   -1
100
AcDbPolyline
 90
    4
 70
    1
 43
0
 10
184.9126458775047
 20
1185.298874167373
 10
184.9126458775048
 20
1233.298874167373
 10
178.9126458775048
 20
1233.298874167373
 10
178.9126458775047
 20
1185.298874167373
  0
MTEXT
  5
113
100
AcDbEntity
  8
Tool Crib Lights
  6
ByLayer
 62
  256
370
   -1
100
AcDbMText
 10
232.3770112250499
 20
1175.088133262333
 30
0
 40
6
 41
6.666666666666666
 71
    5
 72
    1
  1
14
  7
STANDARD
210
0
220
0
230
1
 50
0
 73
    2
 44
1
  0
LWPOLYLINE
  5
114
100
AcDbEntity
  8
Furnaces
  6
ByLayer
 62
  256
370
   -1
100
AcDbPolyline
 90
    4
 70
    1
 43
0
 10
392.2094322616377
 20
471.2819845163068
 10
415.409419780003
 20
448.0819969979416
 10
386.2957099530348
 20
418.9682871709734
 10
363.0957224346697
 20
442.1682746893387
  0
LWPOLYLINE
  5
115
100
AcDbEntity
  8
Furnaces
  6
ByLayer
 62
  256
370
   -1
100
AcDbPolyline
 90
    4
 70
    1
 43
0
 10
242.4701728820157
 20
1188.259168286279
 10
275.2799098773743
 20
1188.259168286279
 10
275.2799098773743
 20
1147.086164997986
 10
242.4701728820157
 20
1147.086164997986
  0
CIRCLE
  5
116
100
AcDbEntity
  8
Metal Shop Vent
  6
ByLayer
 62
  256
370
   -1
100
AcDbCircle
 10
570.6086114727977
 20
1309.940565765326
 40
6.50100334074163
  0
ARC
  5
117
100
AcDbEntity
  8
Metal Shop Vent
  6
ByLayer
 62
  256
370
   -1
100
AcDbCircle
 10
569.7364685191902
 20
1306.809251699705
 40
3.250501670370809
100
AcDbArc
 50
74.43625771558598
 51
254.4362577155857
  0
ARC
  5
118
100
AcDbEntity
  8
Metal Shop Vent
  6
ByLayer
 62
  256
370
   -1
100
AcDbCircle
 10
567.4772974071767
 20
1310.812708718934
 40
3.250501670370809
100
AcDbArc
 50
344.436257715586
 51
164.4362577155857
  0
ARC
  5
119
100
AcDbEntity
  8
Metal Shop Vent
  6
ByLayer
 62
  256
370
   -1
100
AcDbCircle
 10
573.7399255384188
 20
1309.068422811719
 40
3.250501670370809
100
AcDbArc
 50
164.436257715586
 51
344.4362577155857
  0
ARC
  5
11A
100
AcDbEntity
  8
Metal Shop Vent
  6
ByLayer
 62
  256
370
   -1
100
AcDbCircle
 10
571.4807544264053
 20
1313.071879830948
 40
3.250501670370809
100
AcDbArc
 50
254.436257715586
 51
74.43625771558571
  0
CIRCLE
  5
11B
100
AcDbEntity
  8
Large Laser Vent Fan
  6
ByLayer
 62
  256
370
   -1
100
AcDbCircle
 10
-136.6216806654865
 20
906.2102030810811
 40
6.50100334074163
  0
ARC
  5
11C
100
AcDbEntity
  8
Large Laser Vent Fan
  6
ByLayer
 62
  256
370
   -1
100
AcDbCircle
 10
-137.493823619094
 20
903.0788890154602
 40
3.250501670370809
100
AcDbArc
 50
74.43625771558598
 51
254.4362577155857
  0
ARC
  5
11D
100
AcDbEntity
  8
Large Laser Vent Fan
  6
ByLayer
 62
  256
370
   -1
100
AcDbCircle
 10
-139.7529947311075
 20
907.0823460346887
 40
3.250501670370809
100
AcDbArc
 50
344.436257715586
 51
164.4362577155857
  0
ARC
  5
11E
100
AcDbEntity
  8
Large Laser Vent Fan
  6
ByLayer
 62
  256
370
   -1
100
AcDbCircle
 10
-133.4903665998654
 20
905.3380601274737
 40
3.250501670370809
100
AcDbArc
 50
164.436257715586
 51
344.4362577155857
  0
ARC
  5
11F
100
AcDbEntity
  8
Large Laser Vent Fan
  6
ByLayer
 62
  256
370
   -1
100
AcDbCircle
 10
-135.7495377118789
 20
909.3415171467022
 40
3.250501670370809
100
AcDbArc
 50
254.436257715586
 51
74.43625771558571
  0
CIRCLE
  5
120
100
AcDbEntity
  8
Fab Lab Fixtures
  6
ByLayer
 62
  256
370
   -1
100
AcDbCircle
 10
54.93276854683745
 20
680.7911630790061
 40
6.50100334074163
  0
ARC
  5
121
100
AcDbEntity
  8
Fab Lab Fixtures
  6
ByLayer
 62
  256
370
   -1
100
AcDbCircle
 10
54.06062559322993
 20
677.6598490133852
 40
3.250501670370809
100
AcDbArc
 50
74.43625771558598
 51
254.4362577155857
  0
ARC
  5
122
100
AcDbEntity
  8
Fab Lab Fixtures
  6
ByLayer
 62
  256
370
   -1
100
AcDbCircle
 10
51.80145448121642
 20
681.6633060326137
 40
3.250501670370809
100
AcDbArc
 50
344.436257715586
 51
164.4362577155857
  0
ARC
  5
123
100
AcDbEntity
  8
Fab Lab Fixtures
  6
ByLayer
 62
  256
370
   -1
100
AcDbCircle
 10
58.06408261245851
 20
679.9190201253987
 40
3.250501670370809
100
AcDbArc
 50
164.436257715586
 51
344.4362577155857
  0
ARC
  5
124
100
AcDbEntity
  8
Fab Lab Fixtures
  6
ByLayer
 62
  256
370
   -1
100
AcDbCircle
 10
55.804911500445
 20
683.9224771446272
 40
3.250501670370809
100
AcDbArc
 50
254.436257715586
 51
74.43625771558571
  0
LWPOLYLINE
  5
125
100
AcDbEntity
  8
Shop Lighting
  6
ByLayer
 62
  256
370
   -1
100
AcDbPolyline
 90
    4
 70
    1
 43
0
 10
441.8681209486983
 20
470.3075011826284
 10
489.8681209486983
 20
470.3075011826284
 10
489.8681209486983
 20
476.3075011826284
 10
441.8681209486983
 20
476.3075011826284
  0
LWPOLYLINE
  5
126
100
AcDbEntity
  8
Shop Lighting
  6
ByLayer
 62
  256
370
   -1
100
AcDbPolyline
 90
    4
 70
    1
 43
0
 10
333.3769123647818
 20
374.3072002919357
 10
381.3769123647818
 20
374.3072002919357
 10
381.3769123647818
 20
380.3072002919357
 10
333.3769123647818
 20
380.3072002919357
  0
LWPOLYLINE
  5
127
100
AcDbEntity
  8
Shop Lighting
  6
ByLayer
 62
  256
370
   -1
100
AcDbPolyline
 90
    4
 70
    1
 43
0
 10
333.3769123647818
 20
638.3075011826284
 10
381.3769123647818
 20
638.3075011826284
 10
381.3769123647818
 20
644.3075011826284
 10
333.3769123647818
 20
644.3075011826284
  0
LWPOLYLINE
  5
128
100
AcDbEntity
  8
Shop Lighting
  6
ByLayer
 62
  256
370
   -1
100
AcDbPolyline
 90
    4
 70
    1
 43
0
 10
441.8681209486983
 20
722.3075011826284
 10
489.8681209486983
 20
722.3075011826284
 10
489.8681209486983
 20
728.3075011826284
 10
441.8681209486983
 20
728.3075011826284
  0
LWPOLYLINE
  5
129
100
AcDbEntity
  8
Shop Lighting
  6
ByLayer
 62
  256
370
   -1
100
AcDbPolyline
 90
    4
 70
    1
 43
0
 10
333.3769123647818
 20
806.3075011826284
 10
381.3769123647818
 20
806.3075011826284
 10
381.3769123647818
 20
812.3075011826284
 10
333.3769123647818
 20
812.3075011826284
  0
LWPOLYLINE
  5
12A
100
AcDbEntity
  8
Shop Lighting
  6
ByLayer
 62
  256
370
   -1
100
AcDbPolyline
 90
    4
 70
    1
 43
0
 10
441.8681209486983
 20
890.3075011826284
 10
489.8681209486983
 20
890.3075011826284
 10
489.8681209486983
 20
896.3075011826284
 10
441.8681209486983
 20
896.3075011826284
  0
LWPOLYLINE
  5
12B
100
AcDbEntity
  8
Shop Lighting
  6
ByLayer
 62
  256
370
   -1
100
AcDbPolyline
 90
    4
 70
    1
 43
0
 10
333.3769123647818
 20
974.3075011826284
 10
381.3769123647818
 20
974.3075011826284
 10
381.3769123647818
 20
980.3075011826284
 10
333.3769123647818
 20
980.3075011826284
  0
LWPOLYLINE
  5
12C
100
AcDbEntity
  8
Shop Lighting
  6
ByLayer
 62
  256
370
   -1
100
AcDbPolyline
 90
    4
 70
    1
 43
0
 10
441.8681209486983
 20
1058.307501182628
 10
489.8681209486983
 20
1058.307501182628
 10
489.8681209486983
 20
1064.307501182628
 10
441.8681209486983
 20
1064.307501182628
  0
LWPOLYLINE
  5
12D
100
AcDbEntity
  8
Shop Lighting
  6
ByLayer
 62
  256
370
   -1
100
AcDbPolyline
 90
    4
 70
    1
 43
0
 10
333.3769123647818
 20
1142.307501182628
 10
381.3769123647818
 20
1142.307501182628
 10
381.3769123647818
 20
1148.307501182628
 10
333.3769123647818
 20
1148.307501182628
  0
LWPOLYLINE
  5
12E
100
AcDbEntity
  8
Shop Lighting
  6
ByLayer
 62
  256
370
   -1
100
AcDbPolyline
 90
    4
 70
    1
 43
0
 10
165.3769123647818
 20
554.3075011826284
 10
213.3769123647818
 20
554.3075011826284
 10
213.3769123647818
 20
560.3075011826284
 10
165.3769123647818
 20
560.3075011826284
  0
LWPOLYLINE
  5
12F
100
AcDbEntity
  8
Shop Lighting
  6
ByLayer
 62
  256
370
   -1
100
AcDbPolyline
 90
    4
 70
    1
 43
0
 10
165.3769123647818
 20
722.3075011826284
 10
213.3769123647818
 20
722.3075011826284
 10
213.3769123647818
 20
728.3075011826284
 10
165.3769123647818
 20
728.3075011826284
  0
LWPOLYLINE
  5
130
100
AcDbEntity
  8
Shop Lighting
  6
ByLayer
 62
  256
370
   -1
100
AcDbPolyline
 90
    4
 70
    1
 43
0
 10
165.3769123647818
 20
890.3075011826284
 10
213.3769123647818
 20
890.3075011826284
 10
213.3769123647818
 20
896.3075011826284
 10
165.3769123647818
 20
896.3075011826284
  0
LWPOLYLINE
  5
131
100
AcDbEntity
  8
Shop Lighting
  6
ByLayer
 62
  256
370
   -1
100
AcDbPolyline
 90
    4
 70
    1
 43
0
 10
-9.828829933645594
 20
1367.864431780052
 10
38.17117006635441
 20
1367.864431780052
 10
38.17117006635441
 20
1373.864431780052
 10
-9.828829933645594
 20
1373.864431780052
  0
LWPOLYLINE
  5
132
100
AcDbEntity
  8
Shop Lighting
  6
ByLayer
 62
  256
370
   -1
100
AcDbPolyline
 90
    4
 70
    1
 43
0
 10
-130.870601145364
 20
1367.864632373847
 10
-82.87060114536396
 20
1367.864632373847
 10
-82.87060114536396
 20
1373.864632373847
 10
-130.870601145364
 20
1373.864632373847
  0
LWPOLYLINE
  5
133
100
AcDbEntity
  8
Shop Lighting
  6
ByLayer
 62
  256
370
   -1
100
AcDbPolyline
 90
    4
 70
    1
 43
0
 10
-9.828829933645594
 20
1283.864431780052
 10
38.17117006635441
 20
1283.864431780052
 10
38.17117006635441
 20
1289.864431780052
 10
-9.828829933645594
 20
1289.864431780052
  0
LWPOLYLINE
  5
134
100
AcDbEntity
  8
Shop Lighting
  6
ByLayer
 62
  256
370
   -1
100
AcDbPolyline
 90
    4
 70
    1
 43
0
 10
-9.828829933645594
 20
1115.864431780052
 10
38.17117006635441
 20
1115.864431780052
 10
38.17117006635441
 20
1121.864431780052
 10
-9.828829933645594
 20
1121.864431780052
  0
LWPOLYLINE
  5
135
100
AcDbEntity
  8
Shop Lighting
  6
ByLayer
 62
  256
370
   -1
100
AcDbPolyline
 90
    4
 70
    1
 43
0
 10
-9.828829933645594
 20
947.8644317800524
 10
38.17117006635441
 20
947.8644317800524
 10
38.17117006635441
 20
953.8644317800524
 10
-9.828829933645594
 20
953.8644317800524
  0
LWPOLYLINE
  5
136
100
AcDbEntity
  8
Shop Lighting
  6
ByLayer
 62
  256
370
   -1
100
AcDbPolyline
 90
    4
 70
    1
 43
0
 10
-130.870601145364
 20
1115.864632373847
 10
-82.87060114536396
 20
1115.864632373847
 10
-82.87060114536396
 20
1121.864632373847
 10
-130.870601145364
 20
1121.864632373847
  0
LWPOLYLINE
  5
137
100
AcDbEntity
  8
Shop Lighting
  6
ByLayer
 62
  256
370
   -1
100
AcDbPolyline
 90
    4
 70
    1
 43
0
 10
-130.870601145364
 20
1031.864632373847
 10
-82.87060114536396
 20
1031.864632373847
 10
-82.87060114536396
 20
1037.864632373847
 10
-130.870601145364
 20
1037.864632373847
  0
LWPOLYLINE
  5
138
100
AcDbEntity
  8
Shop Lighting
  6
ByLayer
 62
  256
370
   -1
100
AcDbPolyline
 90
    4
 70
    1
 43
0
 10
-130.870601145364
 20
863.8646323738474
 10
-82.87060114536396
 20
863.8646323738474
 10
-82.87060114536396
 20
869.8646323738474
 10
-130.870601145364
 20
869.8646323738474
  0
LWPOLYLINE
  5
139
100
AcDbEntity
  8
Shop Lighting
  6
ByLayer
 62
  256
370
   -1
100
AcDbPolyline
 90
    4
 70
    1
 43
0
 10
-130.870601145364
 20
695.8646323738474
 10
-82.87060114536396
 20
695.8646323738474
 10
-82.87060114536396
 20
701.8646323738474
 10
-130.870601145364
 20
701.8646323738474
  0
LWPOLYLINE
  5
13A
100
AcDbEntity
  8
Shop Lighting
  6
ByLayer
 62
  256
370
   -1
100
AcDbPolyline
 90
    4
 70
    1
 43
0
 10
-130.870601145364
 20
527.8646323738474
 10
-82.87060114536396
 20
527.8646323738474
 10
-82.87060114536396
 20
533.8646323738474
 10
-130.870601145364
 20
533.8646323738474
  0
LWPOLYLINE
  5
13B
100
AcDbEntity
  8
Shop Lighting
  6
ByLayer
 62
  256
370
   -1
100
AcDbPolyline
 90
    4
 70
    1
 43
0
 10
17.25315560970893
 20
638.3075011826284
 10
65.25315560970893
 20
638.3075011826284
 10
65.25315560970893
 20
644.3075011826284
 10
17.25315560970893
 20
644.3075011826284
  0
LWPOLYLINE
  5
13C
100
AcDbEntity
  8
Shop Lighting
  6
ByLayer
 62
  256
370
   -1
100
AcDbPolyline
 90
    4
 70
    1
 43
0
 10
29.37438258831872
 20
737.3224547898282
 10
77.37438258831872
 20
737.3224547898282
 10
77.37438258831872
 20
743.3224547898282
 10
29.37438258831872
 20
743.3224547898282
  0
LWPOLYLINE
  5
13D
100
AcDbEntity
  8
Shop Lighting
  6
ByLayer
 62
  256
370
   -1
100
AcDbPolyline
 90
    4
 70
    1
 43
0
 10
3.018431287697281
 20
696.4687860343785
 10
3.018431287697284
 20
744.4687860343785
 10
-2.981568712302716
 20
744.4687860343785
 10
-2.981568712302719
 20
696.4687860343785
  0
LWPOLYLINE
  5
13E
100
AcDbEntity
  8
Shop Lighting
  6
ByLayer
 62
  256
370
   -1
100
AcDbPolyline
 90
    4
 70
    1
 43
0
 10
333.3769123647818
 20
1142.307501182628
 10
381.3769123647818
 20
1142.307501182628
 10
381.3769123647818
 20
1148.307501182628
 10
333.3769123647818
 20
1148.307501182628
  0
LWPOLYLINE
  5
13F
100
AcDbEntity
  8
Shop Lighting
  6
ByLayer
 62
  256
370
   -1
100
AcDbPolyline
 90
    4
 70
    1
 43
0
 10
165.3769123647818
 20
1058.307501182628
 10
213.3769123647818
 20
1058.307501182628
 10
213.3769123647818
 20
1064.307501182628
 10
165.3769123647818
 20
1064.307501182628
  0
LWPOLYLINE
  5
140
100
AcDbEntity
  8
Shop Lighting
  6
ByLayer
 62
  256
370
   -1
100
AcDbPolyline
 90
    4
 70
    1
 43
0
 10
-94.93573486864199
 20
1335.75262421167
 10
-46.93573486864199
 20
1335.75262421167
 10
-46.93573486864199
 20
1341.75262421167
 10
-94.93573486864199
 20
1341.75262421167
  0
LWPOLYLINE
  5
141
100
AcDbEntity
  8
Shop Lighting
  6
ByLayer
 62
  256
370
   -1
100
AcDbPolyline
 90
    4
 70
    1
 43
0
 10
-165.3040758948193
 20
747.1503260707686
 10
-117.3040758948193
 20
747.1503260707686
 10
-117.3040758948193
 20
753.1503260707686
 10
-165.3040758948193
 20
753.1503260707686
  0
LWPOLYLINE
  5
142
100
AcDbEntity
  8
Shop Lighting
  6
ByLayer
 62
  256
370
   -1
100
AcDbPolyline
 90
    4
 70
    1
 43
0
 10
400.5968444366815
 20
1165.960753434962
 10
446.8769767753291
 20
1165.960753434962
 10
446.8769767753291
 20
1123.661707749101
 10
400.5968444366815
 20
1123.661707749101
  0
LWPOLYLINE
  5
143
100
AcDbEntity
  8
groupingLabels
  6
ByLayer
 62
  256
370
   -1
100
AcDbPolyline
 90
    4
 70
    1
 43
0
 10
3.859425809441689
 20
1828.567310807853
 10
36.66916280480024
 20
1828.567310807853
 10
36.66916280480029
 20
1787.39430751956
 10
3.859425809441632
 20
1787.39430751956
  0
LWPOLYLINE
  5
144
100
AcDbEntity
  8
Furnaces
  6
ByLayer
 62
  256
370
   -1
100
AcDbPolyline
 90
    4
 70
    1
 43
0
 10
153.5986851890637
 20
1111.590127037881
 10
176.7986727074289
 20
1088.390139519516
 10
147.6849628804608
 20
1059.276429692547
 10
124.4849753620956
 20
1082.476417210913
  0
MTEXT
  5
145
100
AcDbEntity
  8
Furnace Labels
  6
ByLayer
 62
  256
370
   -1
100
AcDbMText
 10
388.6548975019073
 20
445.5525739379973
 30
0
 40
20
 41
20
 71
    5
 72
    1
  1
F1
  7

210
0
220
0
230
1
 50
0
 73
    2
 44
1
  0
MTEXT
  5
146
100
AcDbEntity
  8
Furnace Labels
  6
ByLayer
 62
  256
370
   -1
100
AcDbMText
 10
147.9339587338343
 20
1084.119573324579
 30
0
 40
20
 41
24.44444444444445
 71
    5
 72
    1
  1
F2
  7

210
0
220
0
230
1
 50
0
 73
    2
 44
1
  0
MTEXT
  5
147
100
AcDbEntity
  8
Furnace Labels
  6
ByLayer
 62
  256
370
   -1
100
AcDbMText
 10
256.4772183965293
 20
1167.277715808095
 30
0
 40
20
 41
24.44444444444569
 71
    5
 72
    1
  1
F3
  7

210
0
220
0
230
1
 50
0
 73
    2
 44
1
  0
MTEXT
  5
148
100
AcDbEntity
  8
Large Laser Vent Fan Label
  6
ByLayer
 62
  256
370
   -1
100
AcDbMText
 10
-95.85589828062822
 20
906.4494005194977
 30
0
 40
20
 41
55.55555555555556
 71
    5
 72
    1
  1
LVF1
  7

210
0
220
0
230
1
 50
0
 73
    2
 44
1
  0
MTEXT
  5
149
100
AcDbEntity
  8
Snapple Machine Labels
  6
ByLayer
 62
  256
370
   -1
100
AcDbMText
 10
269.7726900371169
 20
492.4989286108072
 30
0
 40
20
 41
28.8888846488459
 71
    5
 72
    1
  1
SN
  7

210
0
220
0
230
1
 50
0
 73
    2
 44
1
  0
LWPOLYLINE
  5
14A
100
AcDbEntity
  8
Snapple Machine
  6
ByLayer
 62
  256
370
   -1
100
AcDbPolyline
 90
    4
 70
    1
 43
0
 10
292.4225245452267
 20
475.8599697521424
 10
250.4225245452267
 20
475.8599697521424
 10
250.4225245452267
 20
506.8599697521424
 10
292.4225245452267
 20
506.8599697521424
  0
MTEXT
  5
14B
100
AcDbEntity
  8
Shop Ceiling Fans Labels
  6
ByLayer
 62
  256
370
   -1
100
AcDbMText
 10
377.2079603518368
 20
566.309576359354
 30
0
 40
20
 41
135.5555555555556
 71
    5
 72
    1
  1
UNKNOWN1
  7

210
0
220
0
230
1
 50
0
 73
    2
 44
1
  0
MTEXT
  5
14C
100
AcDbEntity
  8
Shop Ceiling Fans Labels
  6
ByLayer
 62
  256
370
   -1
100
AcDbMText
 10
-85.75555709789178
 20
814.0822677279033
 30
0
 40
20
 41
140
 71
    5
 72
    1
  1
UNKNOWN2
  7

210
0
220
0
230
1
 50
0
 73
    2
 44
1
  0
MTEXT
  5
14D
100
AcDbEntity
  8
Shop Ceiling Fans Labels
  6
ByLayer
 62
  256
370
   -1
100
AcDbMText
 10
353.6409427720091
 20
1059.609805013656
 30
0
 40
20
 41
140.0000000000013
 71
    5
 72
    1
  1
UNKNOWN3
  7

210
0
220
0
230
1
 50
0
 73
    2
 44
1
  0
MTEXT
  5
14E
100
AcDbEntity
  8
Metal Shop Vent Labels
  6
ByLayer
 62
  256
370
   -1
100
AcDbMText
 10
548.921497854443
 20
1333.425013020891
 30
0
 40
20
 41
57.7777735377348
 71
    5
 72
    1
  1
MSF1
  7

210
0
220
0
230
1
 50
0
 73
    2
 44
1
  0
MTEXT
  5
14F
100
AcDbEntity
  8
Fab Lab Fixture Labels
  6
ByLayer
 62
  256
370
   -1
100
AcDbMText
 10
56.57484669652614
 20
705.6967719514051
 30
0
 40
20
 41
71.11111111111111
 71
    5
 72
    1
  1
FLVF1
  7

210
0
220
0
230
1
 50
0
 73
    2
 44
1
  0
MTEXT
  5
150
100
AcDbEntity
  8
Shop Ceiling Fans Labels
  6
ByLayer
 62
  256
370
   -1
100
AcDbMText
 10
328.1706317806094
 20
1341.443413521043
 30
0
 40
20
 41
39.99998832789774
 71
    5
 72
    1
  1
???
  7

210
0
220
0
230
1
 50
0
 73
    2
 44
1
  0
MTEXT
  5
151
100
AcDbEntity
  8
Metal Shop Lights Labels
  6
ByLayer
 62
  256
370
   -1
100
AcDbMText
 10
159.7511684551788
 20
1305.582836991228
 30
0
 40
20
 41
24.44444444444693
 71
    5
 72
    1
  1
35
  7

210
0
220
0
230
1
 50
0
 73
    2
 44
1
  0
MTEXT
  5
152
100
AcDbEntity
  8
Metal Shop Lights Labels
  6
ByLayer
 62
  256
370
   -1
100
AcDbMText
 10
266.1060559472567
 20
1389.17865390887
 30
0
 40
20
 41
20.00000000000124
 71
    5
 72
    1
  1
31
  7

210
0
220
0
230
1
 50
0
 73
    2
 44
1
  0
MTEXT
  5
153
100
AcDbEntity
  8
Metal Shop Lights Labels
  6
ByLayer
 62
  256
370
   -1
100
AcDbMText
 10
250.349776318801
 20
1313.89865123958
 30
0
 40
20
 41
26.66666666666791
 71
    5
 72
    1
  1
34
  7

210
0
220
0
230
1
 50
0
 73
    2
 44
1
  0
MTEXT
  5
154
100
AcDbEntity
  8
Metal Shop Lights Labels
  6
ByLayer
 62
  256
370
   -1
100
AcDbMText
 10
164.5655872305401
 20
1406.247956839697
 30
0
 40
20
 41
24.44444444444693
 71
    5
 72
    1
  1
33
  7

210
0
220
0
230
1
 50
0
 73
    2
 44
1
  0
MTEXT
  5
155
100
AcDbEntity
  8
Metal Shop Lights Labels
  6
ByLayer
 62
  256
370
   -1
100
AcDbMText
 10
428.920945441302
 20
1395.743770420726
 30
0
 40
20
 41
24.44444444444569
 71
    5
 72
    1
  1
32
  7

210
0
220
0
230
1
 50
0
 73
    2
 44
1
  0
MTEXT
  5
156
100
AcDbEntity
  8
Metal Shop Lights Labels
  6
ByLayer
 62
  256
370
   -1
100
AcDbMText
 10
523.8962976461614
 20
1397.056793723097
 30
0
 40
20
 41
24.44444444444569
 71
    5
 72
    1
  1
30
  7

210
0
220
0
230
1
 50
0
 73
    2
 44
1
  0
MTEXT
  5
157
100
AcDbEntity
  8
Metal Shop Lights Labels
  6
ByLayer
 62
  256
370
   -1
100
AcDbMText
 10
469.1869933806893
 20
1299.455394913495
 30
0
 40
20
 41
24.44444444444445
 71
    5
 72
    1
  1
29
  7

210
0
220
0
230
1
 50
0
 73
    2
 44
1
  0
MTEXT
  5
158
100
AcDbEntity
  8
Welding Zone Lighting Labels
  6
ByLayer
 62
  256
370
   -1
100
AcDbMText
 10
552.6339363552676
 20
676.2777158900064
 30
0
 40
20
 41
140.0000000000013
 71
    5
 72
    1
  1
UNKNOWN5
  7

210
0
220
0
230
1
 50
20
 73
    2
 44
1
  0
MTEXT
  5
159
100
AcDbEntity
  8
Welding Zone Lighting Labels
  6
ByLayer
 62
  256
370
   -1
100
AcDbMText
 10
624.6698774755067
 20
540.8071400519448
 30
0
 40
20
 41
140.0000000000013
 71
    5
 72
    1
  1
UNKNOWN6
  7

210
0
220
0
230
1
 50
-20
 73
    2
 44
1
  0
MTEXT
  5
15A
100
AcDbEntity
  8
Shop Lighting Labels
  6
ByLayer
 62
  256
370
   -1
100
AcDbMText
 10
188.4951556793622
 20
575.1353896837878
 30
0
 40
20
 41
20
 71
    5
 72
    1
  1
10
  7

210
0
220
0
230
1
 50
0
 73
    2
 44
1
  0
MTEXT
  5
15B
100
AcDbEntity
  8
Shop Lighting Labels
  6
ByLayer
 62
  256
370
   -1
100
AcDbMText
 10
189.7818120321224
 20
744.3307000717477
 30
0
 40
20
 41
15.55555555555556
 71
    5
 72
    1
  1
11
  7

210
0
220
0
230
1
 50
0
 73
    2
 44
1
  0
MTEXT
  5
15C
100
AcDbEntity
  8
Shop Lighting Labels
  6
ByLayer
 62
  256
370
   -1
100
AcDbMText
 10
190.3883788438467
 20
910.3628229774739
 30
0
 40
20
 41
20
 71
    5
 72
    1
  1
12
  7

210
0
220
0
230
1
 50
0
 73
    2
 44
1
  0
LWPOLYLINE
  5
15D
100
AcDbEntity
  8
Shop Lighting
  6
ByLayer
 62
  256
370
   -1
100
AcDbPolyline
 90
    4
 70
    1
 43
0
 10
199.1311480550086
 20
1027.59554758864
 10
199.1311480550086
 20
1075.59554758864
 10
193.1311480550086
 20
1075.59554758864
 10
193.1311480550086
 20
1027.59554758864
  0
LWPOLYLINE
  5
15E
100
AcDbEntity
  8
Shop Lighting
  6
ByLayer
 62
  256
370
   -1
100
AcDbPolyline
 90
    4
 70
    1
 43
0
 10
198.6934736208848
 20
1083.18020072236
 10
198.6934736208848
 20
1131.18020072236
 10
192.6934736208848
 20
1131.18020072236
 10
192.6934736208848
 20
1083.18020072236
  0
LINE
  5
15F
100
AcDbEntity
  8
groupingLabels
  6
ByLayer
 62
  256
370
   -1
100
AcDbLine
 10
157.6542966778205
 20
1018.729591489571
 11
221.2921606191999
 21
1018.729591489571
  0
LINE
  5
160
100
AcDbEntity
  8
groupingLabels
  6
ByLayer
 62
  256
370
   -1
100
AcDbLine
 10
221.2921606191999
 20
1018.729591489571
 11
221.2921606191999
 21
1139.458214028567
  0
LINE
  5
161
100
AcDbEntity
  8
groupingLabels
  6
ByLayer
 62
  256
370
   -1
100
AcDbLine
 10
221.2921606191999
 20
1139.458214028567
 11
179.3906864191147
 21
1139.458214028567
  0
LINE
  5
162
100
AcDbEntity
  8
groupingLabels
  6
ByLayer
 62
  256
370
   -1
100
AcDbLine
 10
179.3906864191147
 20
1139.458214028567
 11
179.3906864191147
 21
1074.772813232185
  0
LINE
  5
163
100
AcDbEntity
  8
groupingLabels
  6
ByLayer
 62
  256
370
   -1
100
AcDbLine
 10
179.3906864191147
 20
1074.772813232185
 11
157.6542966778205
 21
1074.772813232185
  0
LINE
  5
164
100
AcDbEntity
  8
groupingLabels
  6
ByLayer
 62
  256
370
   -1
100
AcDbLine
 10
157.6542966778205
 20
1074.772813232185
 11
157.6542966778205
 21
1018.729591489571
  0
MTEXT
  5
165
100
AcDbEntity
  8
Tool Crib Lights Labels
  6
ByLayer
 62
  256
370
   -1
100
AcDbMText
 10
153.9751747137333
 20
1208.705121502807
 30
0
 40
20
 41
22.22222222222222
 71
    5
 72
    1
  1
14
  7

210
0
220
0
230
1
 50
0
 73
    2
 44
1
  0
MTEXT
  5
166
100
AcDbEntity
  8
Shop Lighting Labels
  6
ByLayer
 62
  256
370
   -1
100
AcDbMText
 10
502.1145540831272
 20
1146.552956003494
 30
0
 40
20
 41
68.88888888889014
 71
    5
 72
    1
  1
CNCL1
  7

210
0
220
0
230
1
 50
0
 73
    2
 44
1
  0
MTEXT
  5
167
100
AcDbEntity
  8
Shop Lighting Labels
  6
ByLayer
 62
  256
370
   -1
100
AcDbMText
 10
357.5931464135482
 20
659.7367226553753
 30
0
 40
20
 41
8.888888888890129
 71
    5
 72
    1
  1
6
  7

210
0
220
0
230
1
 50
0
 73
    2
 44
1
  0
MTEXT
  5
168
100
AcDbEntity
  8
Shop Lighting Labels
  6
ByLayer
 62
  256
370
   -1
100
AcDbMText
 10
356.8730673652246
 20
828.1322093459036
 30
0
 40
20
 41
8.888888888888889
 71
    5
 72
    1
  1
7
  7

210
0
220
0
230
1
 50
0
 73
    2
 44
1
  0
MTEXT
  5
169
100
AcDbEntity
  8
Shop Lighting Labels
  6
ByLayer
 62
  256
370
   -1
100
AcDbMText
 10
357.6215917503702
 20
994.1455268784765
 30
0
 40
20
 41
8.888888888888889
 71
    5
 72
    1
  1
8
  7

210
0
220
0
230
1
 50
0
 73
    2
 44
1
  0
MTEXT
  5
16A
100
AcDbEntity
  8
Shop Lighting Labels
  6
ByLayer
 62
  256
370
   -1
100
AcDbMText
 10
358.4356661978408
 20
1163.952265457651
 30
0
 40
20
 41
8.888888888890129
 71
    5
 72
    1
  1
9
  7

210
0
220
0
230
1
 50
0
 73
    2
 44
1
  0
MTEXT
  5
16B
100
AcDbEntity
  8
Shop Lighting Labels
  6
ByLayer
 62
  256
370
   -1
100
AcDbMText
 10
467.8739700783233
 20
1079.742828983371
 30
0
 40
20
 41
11.11111111111111
 71
    5
 72
    1
  1
4
  7

210
0
220
0
230
1
 50
0
 73
    2
 44
1
  0
MTEXT
  5
16C
100
AcDbEntity
  8
Shop Lighting Labels
  6
ByLayer
 62
  256
370
   -1
100
AcDbMText
 10
463.3509385646576
 20
915.3545072052827
 30
0
 40
20
 41
8.888888888890129
 71
    5
 72
    1
  1
3
  7

210
0
220
0
230
1
 50
0
 73
    2
 44
1
  0
MTEXT
  5
16D
100
AcDbEntity
  8
Shop Lighting Labels
  6
ByLayer
 62
  256
370
   -1
100
AcDbMText
 10
466.1877810456657
 20
745.1439583447964
 30
0
 40
20
 41
8.888888888888889
 71
    5
 72
    1
  1
2
  7

210
0
220
0
230
1
 50
0
 73
    2
 44
1
  0
MTEXT
  5
16E
100
AcDbEntity
  8
Shop Lighting Labels
  6
ByLayer
 62
  256
370
   -1
100
AcDbMText
 10
464.4797267055316
 20
490.8124356211208
 30
0
 40
20
 41
4.444444444444445
 71
    5
 72
    1
  1
1
  7

210
0
220
0
230
1
 50
0
 73
    2
 44
1
  0
MTEXT
  5
16F
100
AcDbEntity
  8
Shop Lighting Labels
  6
ByLayer
 62
  256
370
   -1
100
AcDbMText
 10
357.6859627700865
 20
394.9906337338379
 30
0
 40
20
 41
8.888888888890129
 71
    5
 72
    1
  1
5
  7

210
0
220
0
230
1
 50
0
 73
    2
 44
1
  0
MTEXT
  5
170
100
AcDbEntity
  8
Shop Lighting Labels
  6
ByLayer
 62
  256
370
   -1
100
AcDbMText
 10
-106.6278084892604
 20
1391.93557941215
 30
0
 40
20
 41
24.44444444444569
 71
    5
 72
    1
  1
25
  7

210
0
220
0
230
1
 50
0
 73
    2
 44
1
  0
MTEXT
  5
171
100
AcDbEntity
  8
Shop Lighting Labels
  6
ByLayer
 62
  256
370
   -1
100
AcDbMText
 10
15.01257953458901
 20
1388.856075917875
 30
0
 40
20
 41
20
 71
    5
 72
    1
  1
19
  7

210
0
220
0
230
1
 50
0
 73
    2
 44
1
  0
MTEXT
  5
172
100
AcDbEntity
  8
Shop Lighting Labels
  6
ByLayer
 62
  256
370
   -1
100
AcDbMText
 10
-72.36833211545471
 20
1354.59659954407
 30
0
 40
20
 41
24.44444444444569
 71
    5
 72
    1
  1
26
  7

210
0
220
0
230
1
 50
0
 73
    2
 44
1
  0
MTEXT
  5
173
100
AcDbEntity
  8
Shop Lighting Labels
  6
ByLayer
 62
  256
370
   -1
100
AcDbMText
 10
13.85776572423601
 20
1304.554667762106
 30
0
 40
20
 41
20
 71
    5
 72
    1
  1
18
  7

210
0
220
0
230
1
 50
0
 73
    2
 44
1
  0
MTEXT
  5
174
100
AcDbEntity
  8
Shop Lighting Labels
  6
ByLayer
 62
  256
370
   -1
100
AcDbMText
 10
-105.4987962989342
 20
1136.600239371537
 30
0
 40
20
 41
26.66666666666667
 71
    5
 72
    1
  1
24
  7

210
0
220
0
230
1
 50
0
 73
    2
 44
1
  0
MTEXT
  5
175
100
AcDbEntity
  8
Shop Lighting Labels
  6
ByLayer
 62
  256
370
   -1
100
AcDbMText
 10
14.92907494796239
 20
1137.595511034734
 30
0
 40
20
 41
20
 71
    5
 72
    1
  1
17
  7

210
0
220
0
230
1
 50
0
 73
    2
 44
1
  0
MTEXT
  5
176
100
AcDbEntity
  8
Shop Lighting Labels
  6
ByLayer
 62
  256
370
   -1
100
AcDbMText
 10
-106.4940679621317
 20
1051.504512168151
 30
0
 40
20
 41
24.44444444444569
 71
    5
 72
    1
  1
23
  7

210
0
220
0
230
1
 50
0
 73
    2
 44
1
  0
MTEXT
  5
177
100
AcDbEntity
  8
Shop Lighting Labels
  6
ByLayer
 62
  256
370
   -1
100
AcDbMText
 10
14.43143911636365
 20
969.8922357859567
 30
0
 40
20
 41
20.00000000000124
 71
    5
 72
    1
  1
16
  7

210
0
220
0
230
1
 50
0
 73
    2
 44
1
  0
MTEXT
  5
178
100
AcDbEntity
  8
Shop Lighting Labels
  6
ByLayer
 62
  256
370
   -1
100
AcDbMText
 10
-62.90591574279707
 20
866.7850018048201
 30
0
 40
20
 41
24.44444444444445
 71
    5
 72
    1
  1
22
  7

210
0
220
0
230
1
 50
0
 73
    2
 44
1
  0
MTEXT
  5
179
100
AcDbEntity
  8
Shop Lighting Labels
  6
ByLayer
 62
  256
370
   -1
100
AcDbMText
 10
-184.3289624091263
 20
751.2136682308441
 30
0
 40
20
 41
24.44444444444693
 71
    5
 72
    1
  1
36
  7

210
0
220
0
230
1
 50
0
 73
    2
 44
1
  0
MTEXT
  5
17A
100
AcDbEntity
  8
Shop Lighting Labels
  6
ByLayer
 62
  256
370
   -1
100
AcDbMText
 10
-62.17445160625292
 20
700.7426428092976
 30
0
 40
20
 41
20
 71
    5
 72
    1
  1
21
  7

210
0
220
0
230
1
 50
0
 73
    2
 44
1
  0
MTEXT
  5
17B
100
AcDbEntity
  8
Shop Lighting Labels
  6
ByLayer
 62
  256
370
   -1
100
AcDbMText
 10
54.12834610426724
 20
761.4541661424622
 30
0
 40
20
 41
24.44444444444569
 71
    5
 72
    1
  1
37
  7

210
0
220
0
230
1
 50
0
 73
    2
 44
1
  0
MTEXT
  5
17C
100
AcDbEntity
  8
Shop Lighting Labels
  6
ByLayer
 62
  256
370
   -1
100
AcDbMText
 10
42.42491991956081
 20
620.2815877894409
 30
0
 40
20
 41
20.00000000000124
 71
    5
 72
    1
  1
15
  7

210
0
220
0
230
1
 50
0
 73
    2
 44
1
  0
MTEXT
  5
17D
100
AcDbEntity
  8
Shop Lighting Labels
  6
ByLayer
 62
  256
370
   -1
100
AcDbMText
 10
-108.9881563450788
 20
623.9389084721627
 30
0
 40
20
 41
140
 71
    5
 72
    1
  1
UNKNOWN7
  7

210
0
220
0
230
1
 50
0
 73
    2
 44
1
  0
MTEXT
  5
17E
100
AcDbEntity
  8
Shop Lighting Labels
  6
ByLayer
 62
  256
370
   -1
100
AcDbMText
 10
142.9887807077907
 20
1017.943938848319
 30
0
 40
20
 41
20.00000000000124
 71
    5
 72
    1
  1
13
  7

210
0
220
0
230
1
 50
0
 73
    2
 44
1
  0
MTEXT
  5
17F
100
AcDbEntity
  8
Shop Lighting Labels
  6
ByLayer
 62
  256
370
   -1
100
AcDbMText
 10
-107.012746426045
 20
550.0763116648142
 30
0
 40
20
 41
24.44444444444444
 71
    5
 72
    1
  1
20
  7

210
0
220
0
230
1
 50
0
 73
    2
 44
1
  0
MTEXT
  5
180
100
AcDbEntity
  8
Shop Lighting Labels
  6
ByLayer
 62
  256
370
   -1
100
AcDbMText
 10
-107.7826222996137
 20
448.0677584169655
 30
0
 40
20
 41
24.44444444444445
 71
    5
 72
    1
  1
27
  7

210
0
220
0
230
1
 50
0
 73
    2
 44
1
  0
LINE
  5
181
100
AcDbEntity
  8
Shop Lighting Labels
  6
ByLayer
 62
  256
370
   -1
100
AcDbLine
 10
-24.86978064250121
 20
643.6884401588547
 11
-1.462928273088306
 21
694.1594655804014
  0
ENDSEC
  0
SECTION
  2
OBJECTS
  0
DICTIONARY
  5
C
330
0
100
AcDbDictionary
281
    1
  3
ACAD_GROUP
350
D
  0
DICTIONARY
  5
D
330
C
100
AcDbDictionary
281
    1
  0
ENDSEC
  0
EOF
